Song name
# A B C D E F G H I J K L M N O P Q R S T U V W X Y Z

Bombay Bicycle Club - You Already Know tab

e --------------------------------------------- ------------------------------|
B-----------0----0------------0----0------- --------0----0--------0----0------|
G-----------0----0------------0----0--------X2 --------2----2--------2----2---|
D-----------7----7------------7----7-------- --------0----0--------0----0-----|
A--------7------------------7---------------- ------2--------------2----------|
E-----8------------------8-------------------- ----3--------------3-----------|


But on the repeat of the second chord (the one with 3 in the root), you can play

e ---------------------------------|
B --------0----0--------0----0-----|
G --------2----2--------2----0-----|
D --------0----0--------0----0-----|
A ------2--------------2-----------|
E ----3--------------3-------------|

e -----------------------------------------------------------------|
B -----0---0---------0---0------0---0---------0----repeat-------0--|
G -----0---0---------2---2------0---0---------0--seven times----0--|  x3
D -----2---2---------0---0------2---2---------2--- or so--------0--|
A ----------------0---(0)-----3--(3)--------0----------------------|
E --0---(0)---------------------------------------------------3----|

You said love was painted gold...


On third repeat e --------            ---------|
        B ----0---            ----2------------|
        G ----0---  becomes   ----0------------|   and go straight to the next bit
        D ----2---            ----2------------|
        A -0------            -0---------------|
        E --------            -----------------|

Chorus:

e ------------------------------------|
B -----3----3------3---3--------------|
G -----0----0------0---0--------------|
D -----0----0------2---2--------------|
A -----2----2---3---------------------|
E --3-----x----------x----------------|
Tap to rate this tab
# A B C D E F G H I J K L M N O P Q R S T U V W X Y Z