Song name
# A B C D E F G H I J K L M N O P Q R S T U V W X Y Z

Bombay Bicycle Club - Ivy Gold tab

I have no e string.
- SDJS

----------------------------------------------------|
-9-11-9-------------------------9-11-9----------6---|
-------10-8--6--8-10-8-6--------------10-8-6-8----8-|
-------------------------8-6------------------------|
----------------------------------------------------|
----------------------------------------------------|

----------------------------------6----7-6---------|
-9-11-9-------------------------6----6-----8-6-----|
-------10-8--6--8-10-8-6---------------------------|
-------------------------8-6-----------------------|
---------------------------------------------------|
---------------------------------------------------|
Tap to rate this tab
 
# A B C D E F G H I J K L M N O P Q R S T U V W X Y Z