Bombay Bicycle Club - Ivy And Gold tab

-------------------------------------------------------------------------------
IVY AND GOLD  Bombay Bicycle Club
-------------------------------------------------------------------------------
Tabbed by:hayle93
Email:

Tuning: Standard

INTRO and VERSE
e|---------------------------------------------------------------------------|
B|--10-12-10-----------------------10-12-10----------------------------------|
G|-----------11-9----9-11-9-----------------11-9----9h11p9-------------------|
D|----------------12--------12-9-----------------12--------------------------|
A|-------------------------------12------------------------------------------|
E|---------------------------------------------------------------------------|

e|---------------------------------------------------------------------------|
B|--10-12-10-----------------------------------------------------------------|
G|-----------11-9----9-11-9------------11-12-11-9----------------------------|
D|----------------12--------12-9----12------------12-------------------------|
A|-------------------------------12------------------------------------------|
E|---------------------------------------------------------------------------|

CHORUS
e|----0-------5------5-------------------------------------------------------|
B|----1-------7------5-------------------------------------------------------|
G|----2-X15---5-X7---6-X7----VERSE-------------------------------------------|
D|----2-------7------5-------------------------------------------------------|
A|----0-------5------7-------------------------------------------------------|
E|--4-------5-5----5-5----5--------------------------------------------------|



************************************
| h   hammer-on
| p   pull-off
************************************
Tap to rate this tab
 
# A B C D E F G H I J K L M N O P Q R S T U V W X Y Z