Song name
# A B C D E F G H I J K L M N O P Q R S T U V W X Y Z

Bombay Bicycle Club - Dust On The Ground Acoustic tab

-----------------------------------------------------------------------------
	        DUST ON THE GROUND Ė BOMBAY BICYCLE CLUB
-----------------------------------------------------------------------------

Tuning: Capo 3

This is an acoustic cover that Bombay Bicycle Club did for watchlistentell on 
youtube;   http://www.youtube.com/watch?v=7vppHXehk4g
I havenít tabbed it exactly as it is in the video, but itís how I play it.



           C            G            Am        Em              
         e|-------------------------|------------------------|
         B|-------------0----0----0-|----1----0-----0----0---|
         G|-------------0----0----0-|----2----0-----0----0---|     
INTRO;   D|-0h2p0-0-----0----0----0-|----2----2-----2----2---|
         A|----------------2--------|-0-----------2----------|
         E|-----------3--------3----|-------0----------0-----|


    C      G                  Am     Em
e|------------------------|------------------------|
B|----1-----0-----0----0--|----1----0-----0----0---| This repeats through the
G|----0-----0-----0----0--|----2----0-----0----0---| verses. Watch the video
D|----2-----0-----0----0--|----2----2-----2----2---| for the right timing.
A|-3----------2-----------|-0-----------2----------|
E|-------3----------3-----|-------0----------0-----|

         C       G
It's that ancient love    
         Am      Em
That you won't outgrow
         C       G
It's the fee you pay
         Am       Em
It's the debt you owe
Is that subtle way
That you throw me down
I am inches above
The dust on the ground



 Cmaj7                                   e|---5---7-------2h3p0---0------|
 And always quiet                        B|----------3---------------3---|     
               G                         G|------------------------------|  
 Always quiet now                        D|------------------------------|  
 Cmaj7                                   A|------------------------------|
 And always silent                       E|------------------------------|
                G
 Always silent now                         A second guitar plays this while     
 Cmaj7                                      the first plays the G chord.
 Now I donít hide it
                  G
 I don't hide it now



It's that ancient love
That just moves along
And there's an itch so slight
Even when you're gone
Well I met you right
But I kept your wrong
And I must wait until I've found the ground that you are walking on

And always quiet
Always quiet now
And always silent
Always silent now
Now I don't hide it
I don't hide it now
Now I don't hide it
I don't hide it now
Tap to rate this tab
 
# A B C D E F G H I J K L M N O P Q R S T U V W X Y Z