Bombay Bicycle Club - Rinse Me Down tab

BOMBAY BICYCLE CLUB - RINSE ME DOWN

CAPO on 2nd fret
Key: Amaj

The verse is played after the intro once, without singing.

enjoy :D


Intro


E|-----2---------------|
B|------3-------3------|
G|-0h2---2-----0-------|  x2
D|-0-0-----------------|
A|------------2--------|
E|---------------------|

E|-----20--------------|
B|-------3------3------|
G|-0h2--------0--------|  x1
D|-0-0-----------------|
A|------------2--------|
E|---------------------|

E|-----2---2---2-------|
B|------3---3---3------|
G|-0h2---2---2---2-----|
D|-0-0-----------------|
A|---------------------|
E|---------------------|

Verse

E|-0--0---0--0---------|
B|-3---3--3---3--------|
G|-0------0------------|
D|-0------0------------|
A|-2------2------------|
E|--------3------------|

E|---------------------|
B|----3--3--3----------|
G|----0--0--0----------| x 2
D|----0--0--0----------|
A|--0h2-----2----------|
E|-------3--3----------|

E|----------00-----------0000--|
B|--3-3-3---33--33-3333--3333--|
G|--0-0-0---00--22-4220--0000--|
D|--0-2-4---22--00-0042--2222--|
A|----------22-----------2222--|
E|--3-3-3---00--33-3333--0000--|


E|-----2-----22--------|
B|------3----33--------|
G|--0h2--2---00--------| x4
D|--0--------44--------|
A|---------------------|
E|---------------------|

chasing the night
to make it right

ooh and you had it
caught like a rabbit

told you to wait
but its too late

youve got your plan
rinsing him down

turning your head
to might instead?

give you the eyes
burning like mine


By Heymega.
Tap to rate this tab
 
# A B C D E F G H I J K L M N O P Q R S T U V W X Y Z