Song name
# A B C D E F G H I J K L M N O P Q R S T U V W X Y Z

Bombay Bicycle Club - Ivy And Gold tab

Song: Ivy & Gold
Interpret: Bombay Bicycle Club
Album: Flaws
Year: 2010

Tabbed by: the_erk

Watching the song on youtube (acoustic version) made me also want to play it with a capo on
the sixth fret. This is just the tab for the verse without the bass notes he addes. I 
been
able to figure them out completely. Enjoy !


Capo on the 6th fret.

Tuning: Standard


e------0----------------------------0-------------------------|
B----3---3-0---------0------------3---3-0---------0-----------|
G------------2-0---2---2-0----------------2-0-2-----2---------|
D--------------------------2-0------------------------2-------|
A---------------------------------------------0---------------|
E-------------------------------------------------------------|


e------0------------------------------------------------------|
B----3---3-0---------0--------------0--1-0--------------------|
G------------2-0---2---2-0--------0--------2-0----------------|
D--------------------------2-0--------------------------------|
A-------------------------------------------------------------|
E-------------------------------------------------------------|


Please comment and if someone is able to figure out the entire verse including the bass notes
please contact me: (arsenal-london@gmx.de).
Tap to rate this tab
 
# A B C D E F G H I J K L M N O P Q R S T U V W X Y Z