Bombay Bicycle Club - Cancel On Me tab

-------------------------------------------------------------------------------
Cancel on Me Solo - Bombay Bicycle Club
-------------------------------------------------------------------------------
Tabbed by: David Eves
Email: davelikes210@hotmail.co.uk

Tuning: Standard

Thought that the other solo wasn't quite right, in my opinion, so worked it out myself based 
around the previous tab. 
This is my first tab so don't go crazy if it's not right, it's just how I play it. :)

e|------------------------------------------------------------------------|
B|--------12---12---------12---12---13b14-----------13b14-----------------|
G|--13b14----------13b14-------------------13-13-13-------13--13--11-11---|
D|------------------------------------------------------------------------|
A|------------------------------------------------------------------------|
E|------------------------------------------------------------------------|

e|------------------------------------------------------------------------|
B|---------12---12---------12----12---16b17----------16b17----------------|
G|---13b14----------13b14-------------------13-13-13-------13-13/11-11----|
D|------------------------------------------------------------------------|
A|------------------------------------------------------------------------|
E|------------------------------------------------------------------------|

e|------------------------------------------------------------------------|
B|--------12---12---------12---12---13b14-----------13b14-----------------|
G|--13b14----------13b14-------------------13-13-13-------13--13--11-11---|
D|------------------------------------------------------------------------|
A|------------------------------------------------------------------------|
E|------------------------------------------------------------------------|

e|------------------------------------------------------------------------|
B|------12--12-------12--12---16b17-----------16b17-----------------------|
G|13b14--------13b14-----------------13-13-13-------13--13/11--11/9---9/13|
D|------------------------------------------------------------------------|
A|------------------------------------------------------------------------|
E|------------------------------------------------------------------------|
Tap to rate this tab
 
# A B C D E F G H I J K L M N O P Q R S T U V W X Y Z