Bombay Bicycle Club - Ivy And Gold tab

Forgot to add the ending/second part to this riff first time around. Sorry.

^ = hammer on

A easy, good sounding riff with a small hammer on. Standard Tuning.

----5--7--5-------------------------------5--7--5-------------------------|
-------------7--5-----5--7--5----------------------7--5-----5---5^6^7--5--|
-------------------7-----------7--4--2-------------------7----7-----------|
--------------------------------------------------------------------------|
--------------------------------------------------------------------------|
--------------------------------------------------------------------------|

----5--7--5---------------------------------------------------------------|
-------------7--5----5--7--5---------------7----8--7--5--7--3-------------|
-------------------7----------7--4--2---7---------------------------------|
--------------------------------------------------------------------------|
--------------------------------------------------------------------------|
--------------------------------------------------------------------------|
Tap to rate this tab
 
# A B C D E F G H I J K L M N O P Q R S T U V W X Y Z