Song name
# A B C D E F G H I J K L M N O P Q R S T U V W X Y Z

Bombay Bicycle Club - Flaws tab

                      FLAWS - Bombay Bicycle Club
                              Guitar Tab
                       Tabbed by calicoeannecash

GUITAR 1
Standard tuning, capo 1st fret
As Jack Steadman plays on the album, Flaws 2010.  He likes to differ his guitar 
picking in performances.

Standard tuning, capo 1st fret

Intro
 | | |||| | | |||| | | |||| | | |||| | | |||| | | ||||
|------------------------------------------------------|-----------|
|--7----7---7----7---7----7---0--0-0---0--0-0---0--0-0-|-----------|
|-----0--------0--------0-----0---0----0---0----0---0--|-----%-----|
|--7---7----7---7----7---7--0--------0--------0--------|-----------|
|7--------7--------5-----------------------------------|-----------|
|----7--------7--------5--------3--------3--------3----|-----------|

Taking the second plan...
|------------------------------------------------------|-----------|
|--7----7---7----7---7----7---0--0-0---0--0-0---0--0-0-|-----------|
|-----0--------0--------0-----0---0----0---0----0---0--|-----%-----|
|--7---7----7---7----7---7--0--------0--------0--------|-----------|
|7--------7--------5-----------------------------------|-----------|
|----7--------7--------5--------3--------3--------3----|-----------|

Life of a selfless man...                |||| |||| |||| |||| ||||
|-----------------------------------------------------------------|
|--7----7---7----7---7----7---0--0-0---0----0----0----0----0----0-|
|-----0--------0--------0-----0---0----0--0----0----0----0----0---|
|--7---7----7---7----7---7--0--------0-----4----4----4----4----4--|
|7--------7--------5----------------------------------------------|
|----7--------7--------5--------3--------3----3----3----3----3----|

Stumbled on...
-----------------------------------------------------------------|
---0----0----0----0----0----0----0----0----0----0----0----0----0-|
-0----0----0----0----0----0----0----0----0----0----0----0----0---|
--4----4----4----4----4----4----4----4----4----4----4----4----4--|
3----3--------------------------------------------3----3---------|
----------3----3----3----3----3----3----3----3--------------3----|

                                             | | ||||
---------------------------------------------------------------------|
---0----0----0----0----0----0----0----0----0---0--0-0---0--0-0---0---|
-0----0----0----0----0----0----0----0----0---------------------------|
--4----4----4----4----4----4----4----4----4----0---0----0---0----0---|
--------------------2---------2----3---------------------------------|
3----3---3----0----------0--------------3----3---3----3---3----3---3-|

    |||||||| | | |||| etc.
----------------------|
0-0--0-0-------7----7-|
---------0-0------0---|
-0----0--------7---7--|
----------------------|
----3---3-2--0---7----|

This is repeated for the next verse, chorus and harp instrumental with some 
variations of the notes picked and a second guitar is also introduced.
Tap to rate this tab
 
# A B C D E F G H I J K L M N O P Q R S T U V W X Y Z