Bombay Bicycle Club - Dust On The Ground Acoustic tab

-------------------------------------------------------------------------------
       DUST ON THE GROUND ACOUSTIC VERSION - Bombay Bicycle Club
-------------------------------------------------------------------------------


Tabbed by: Calpus95
Email: c.joe.palmer@gmail.com

Tuning: Standard

Capo on 3rd fret

This isn't exactly how it is in the video but this is how I play it. 
The strumming is quite detailed so listen to the song to fit the tab around it. 

e|---------------------------------------------------------------------------|
B|---------------------------------------------------------------------------|
G|-----------------------0-----------------0-0-----------0-------------------|
D|---0h2p0-0-------------0-----------------0-0-----------0-------------------|
A|-----------------------2------0h2p0-0----2-2-----------2-------------------|
E|---------------3-------3-----------------3-3-----3-----3-------------------|

e|---------------------------------------------------------------------------|
B|---------------------------------------------------------------------------|
G|---0h2p0-0-------------0-----------------0-0-----------0-------------------|
D|-----------------------2-----------------2-2-----------2-------------------|
A|-----------------------2-----0h2p0-0-----2-2-----------2-------------------|
E|---------------0-------0-----------------0-0-----0-----0-------------------|

************************************
| h   hammer-on
| p   pull-off
************************************
Tap to rate this tab
 
# A B C D E F G H I J K L M N O P Q R S T U V W X Y Z