Song name
# A B C D E F G H I J K L M N O P Q R S T U V W X Y Z

Bombay Bicycle Club - Dust On The Ground Acoustic tab

Dust on the Ground - Bombay Bicycle Club

This is the tabs for this acoustic version:
http://www.youtube.com/watch?v=7vppHXehk4g

This is my first tab, pretty much correct to what they are playing.
If you keep listening to the song you will pick up the rhythem fast.
Enjoy!

Capo 3rd Fret

Intro and Verse:


e|-------------------------------------------------|
B|------------0----------0--------0-----------0----|
G|------------0----------0-0h2p0--0-----------0----|
D|--0h2p0-0---0-------0--0--------2-------2---2----|
A|--------------0h2p0-------------2-0h2p0-----2----|
E|----------3-----------3-------0-0---------0-0----|


Chorus:

Rhythem Guitar:
Csus7 & G

Lead:

e|--------------|
B|--------------|
G|--2-4---------|
D|------4-2-----|
A|----------5---|
E|--------------|


Outro Riff Lead (right at the end of the song):

e|-------------------------|
B|-------------------------|
G|--4p2p0------------------|
D|--------4p2p0------------|
A|--------------5p2p0-2----|
E|----------------------3--|


Tabbed by Matthew Flynn
Tap to rate this tab
 
# A B C D E F G H I J K L M N O P Q R S T U V W X Y Z