Bombay Bicycle Club - The Giantess tab

This is the first tab I've submitted, so I hope it's up to standard! I got the
intro/verse, chorus and pre-chorus bits from Milchbubi99's tab and made a few 
corrections and I
tabbed out the outro and ending bits myself by ear. Should be pretty accurate! I also 
added the song order complete with timecodes. Enjoy!

- SteveOtts (s.otter@live.com)

| /  slide up
| \  slide down
| h  hammer-on
| p  pull-off
| ~  vibrato
| +  harmonic
| x  Mute note

TUNING: DADF#Bd

Capo: 2nd Fret

(Tab is relative to capo)


Intro/Verse (x3):

d|--------------------------------------------------------------------------|
B|--------------------------------------------------------------------------|
F#|------3h5p3p0--------------0-------0-------------------------------------|
D|------0--------2p0------0h2---0---0---------------------------------------|
A|-----0-----------------2--------2-----------------------------------------|
D|----0----------------2----------------------------------------------------|


d|--------------------------------------------------------------------------|
B|--------------------------------------------------------------------------|
F#|------3h5p3p0--------------0-------0-------------------------------------|
D|------0--------2p0------0h2---2---0---------------------------------------|
A|-----0-----------------2--------2-----------------------------------------|
D|----0----------------2----------------------------------------------------|


d|--------------------------------------------------------------------------|
B|-------------------------2-------3----3---5/7\5-3-0-1-2-3-----------------|
F#|------3h5p3p0----------0-0-----5-5--5------------------------------------|
D|------0--------2p0-----2-------4------------------------------------------|
A|-----0----------------0-------2-----2-------------------------------------|
D|----0---------------------------------------------------------------------|

Once is better than a life-time,
Once is better than whole long side,
When you catch it in the humble life.

He can get it in the after,
You can hold it in the molder while,
When the back of her, you're so damn worked over.


Pre-Chorus (x2):

d|--------------------------------------------------------------------------|
B|--------12-~12----11-~11----5-~5----5-~5----------------------------------|
F#|-------------------------------------------------------------------------|
D|------0----------0---------0-------0--------------------------------------|
A|-----0----------0---------0-------0---------------------------------------|
D|----0----------0---------0-------0----------------------------------------|



Chorus(x4):

d|-------------------|-----------------|------------------|-----------------|
B|-------------------|-----------------|------------------|----3------2-----|
F#|------5-0---0-----|-----5-0---0-----|-----5-0---0---0--|---5-5----3-3----|
D|------0----2----0--|----0----2----0--|----0----2---2----|--4------4-------|
A|-----0--------3----|---0--------3----|---0--------------|-2------4--------|
D|----0--------------|--0--------------|--0---------------|-----------------|

Where's the Lining?
Where's the Lining?
Where's the Lining now?

Where your fingers?
Where your fingers?
Where your fingers now?

He can taste it,
He can taste it,
He can taste it now.

Come and get it,
Come and get it,
Come and get it now,

Verse (x3):

d|--------------------------------------------------------------------------|
B|--------------------------------------------------------------------------|
F#|------3h5p3p0--------------0-------0-------------------------------------|
D|------0--------2p0------0h2---0---0---------------------------------------|
A|-----0-----------------2--------2-----------------------------------------|
D|----0----------------2----------------------------------------------------|

d|--------------------------------------------------------------------------|
B|--------------------------------------------------------------------------|
F#|------3h5p3p0--------------0-------0-------------------------------------|
D|------0--------2p0------0h2---2---0---------------------------------------|
A|-----0-----------------2--------2-----------------------------------------|
D|----0----------------2----------------------------------------------------|


d|--------------------------------------------------------------------------|
B|-------------------------2-------3----3---5/7\5-3-0-1-2-3-----------------|
F#|------3h5p3p0----------0-0-----5-5--5------------------------------------|
D|------0--------2p0-----2-------4------------------------------------------|
A|-----0----------------0-------2-----2-------------------------------------|
D|----0---------------------------------------------------------------------|


Once is better than a life-time,
Once is better than whole long side,
When you catch it in the humble life.

He can get it in the after,
You can hold it in the molder while,
When the back of her, you're so damn worked over.

Pre-Chorus (x2):

d|--------------------------------------------------------------------------|
B|--------12-~12----11-~11----5-~5----5-~5----------------------------------|
F#|-------------------------------------------------------------------------|
D|------0----------0---------0-------0--------------------------------------|
A|-----0----------0---------0-------0---------------------------------------|
D|----0----------0---------0-------0----------------------------------------|

*Quiet unintellible Whispering*

Chorus(x8):

d|-------------------|-----------------|------------------|-----------------|
B|-------------------|-----------------|------------------|----3------2-----|
F#|------5-0---0-----|-----5-0---0-----|-----5-0---0---0--|---5-5----3-3----|
D|------0----2----0--|----0----2----0--|----0----2---2----|--4------4-------|
A|-----0--------3----|---0--------3----|---0--------------|-2------4--------|
D|----0--------------|--0--------------|--0---------------|-----------------|


Where's the Lining?
Where's the Lining?
Where's the Lining now?

Where your fingers?
Where your fingers?
Where your fingers now?

He can taste it,
He can taste it,
He can taste it now.

Come and get it,
Come and get it,
Come and get it now,

Pre-Outro(x3):

d|--------------------------------------------------------------------------|
B|--------12-~12----11-~11----5-~5----5/7-5-3-------------------------------|
F#|-------------------------------------------------------------------------|
D|------0----------0---------0-------0--------------------------------------|
A|-----0----------0---------0-------0---------------------------------------|
D|----0----------0---------0-------0----------------------------------------|



Outro(x2):

d|------4-------------------------------------|-----------------------------|
B|-----0------0-------0-------0-----1----2----|------3-5-3--------5/7-5-3---|
F#|---0------0--0-------0-------0-----0----0--|-----0------0--------------0-|
D|---0------0-----0-------0-------0-----------|----0---------0--------------|
A|--2------0--------2-------2-----------------|---0-------------------------|
D|-------2------------------------------------|--0-------------0------------|

d|------4-------------------------------------|-----------------------------|
B|-----0------0-------0-------0-----1----2----|------3-5-3--------3-5/7-5-3-|
F#|---0------0--0-------0-------0-----0----0--|-----0------0----------------|
D|---0------0-----0-------0-------0-----------|----0---------0--------------|
A|--2------0--------2-------2-----------------|---0-------------------------|
D|--------2-----------------------------------|--0-------------0------------|



Ending:

d|------4-------------------------------------|---7-------------------------|
B|-----0------0-------0-------0-----1----2----|---0-------------------------|
F#|---0------0--0-------0-------0-----0----0--|---0-------------------------|
D|---0------0-----0-------0-------0-----------|---0-------------------------|
A|--2------0--------2-------2-----------------|---0-------------------------|
D|--------2-----------------------------------|---0-------------------------|

Song order:

Intro/Verse (X3) [0:00-0:45]
Pre-Chorus (x2) [0:45-1:02]
Chorus (x4) [1:02-1:35]
Intro/Verse(x3) [1:35-2:20]
Pre-Chorus (x2) [2:20-2:40]
Chorus (x8) [2:40-3:45]
Pre-Outro (x3) [3:45-4:15]
Outro (x2) [4:15-4:56]
Ending (x1) [4:56-5:14]
Tap to rate this tab
 
# A B C D E F G H I J K L M N O P Q R S T U V W X Y Z