Song name
# A B C D E F G H I J K L M N O P Q R S T U V W X Y Z

Bombay Bicycle Club - Evening Morning tab

this is for the rhythm as i noticed no one else had done it. 


CAPO FRET 1

INTRO
e| ------------|------------|------------|------------|
B| ------------|------------|------------|------------|
G| ------------|------------|------------|------------|
D| 12-12-12-12-|12-12-12-12-|12-12-12-12-|12-12-12-12-|
A| 10-10-10-10-|10-10-10-10-|10-10-10-10-|10-10-10-10-|
E| 11-11-11-11-|11-11-11-11-|8--8--8--8--|8--8--8--8--|

MAIN RIFF
e---------------|-------------------|
B---------------|-------------------|
G---------------|-------------------|
D---------------|---------------8-10|
A 6-6-6-6-8-6-8-|-----------/10-----|
E --------------|8-8-8-8-8----------|

CHORUS
e--------------------|-------------|
B 11-11-11-11-11---11|8-8-8-8-8---8|
G 10-10-10-10-10---10|7-7-7-7-7---7|
D--------------------|-------------|
A 10-10-10-10-10---10|7-7-7-7-7---7|
E 11-11-11-11-11---11|8-8-8-8-8---8|

VERSE 2
e------------------------|-----------------------|
B------------------------|-----------------------|
G 14-14-14-14-14-14-14-14|16-16-16-16-16-16-16-16|
D 12-12-12-12-12-12-12-12|14-14-14-14-14-14-14-14|
A 13-13-13-13-13-13-13-13|15-15-15-15-15-15-15-15|
E------------------------|-----------------------|

e------------------------|-----------------------|
B------------------------|-----------------------|
G 14-14-14-14-14-14-14-14|12-12-12-12-12-12-12-12|
D 12-12-12-12-12-12-12-12|10-10-10-10-10-10-10-10|
A 13-13-13-13-13-13-13-13|12-12-12-12-12-12-12-12|
E------------------------|-----------------------|
Tap to rate this tab
 
# A B C D E F G H I J K L M N O P Q R S T U V W X Y Z