Song name
# A B C D E F G H I J K L M N O P Q R S T U V W X Y Z

Bombay Bicycle Club - If I Could tab

first tab.. probably wrong somewhere ha


first part:
e -------------------------------------------------------|
B -------------------------------------------------------|
G -------4----------0----------2-----------0-------------|
D -----0---0------0---0------0---0-------0---0-----------|
A --0h2-2-2-2--0h2-2-2-2--0h2-2-2-2---0h2-2-2-2----------|
E -------------------------------------------------------|

second part (probably a bit wrong):

e ------    -----    ------    --------    -----    ---------
B ---5--    ---5-    ---0--    ---0-0--    ---0-    ---0-0---
G ---0-- x6 ---0- x2 ---4-- x6 ---0-0--    ---2- x6 ---0-0---
D --2---    --0--    ---0--    ---0-0--    ---0-    ---0-0---
A ------    -----    --2---    ----0---    --2--    ----0----
E ------    -----    ------    --3-----    -----    --3------

beanz.
Tap to rate this tab
 
# A B C D E F G H I J K L M N O P Q R S T U V W X Y Z