Bombay Bicycle Club - What If tab

-----------------------------------------------------------------------------
			     What If - Bombay Bicycle Club
-----------------------------------------------------------------------------
Tabbed by: Ben Diamond

Tuning: Standard and Capo 7 (all notes relative to capo)

This is my first tab so I would appreciate some feedback and comments if you've got time.
The tab isn't perfect, I know, but it will definitely let you play along with this
ace track. Enjoy!


Intro Chords (listen to song for timing)
e|---------------------------|
B|---3--3--3--3--------------|
G|---0--0--2--2--------------|
D|---2--2--0--0--------------|
A|---2--2--0--3--------------|
E|---0--0--3--0--------------|

Verse
e|---------2--0--------------------|
B|---------------------0-----------|
G|-------0---------0--------0---0--|
D|---0h2---------0---0--------0----|
A|---------------------------------|
E|---------------------------------|

Pre-Chorus (these chords are picked not strummed)
e|---------------------------------|
B|--5--7--8--0---------------------|
G|--4--7--7--2---------------------|
D|--0--0--0--2---------------------|
A|--3--5--7--0---------------------|
E|---------------------------------|

Chorus (listen to song for timing)
e|---------------------------------|
B|--5--7--8--10-0--3---------------|
G|--0--0--7--7--2--2---------------|
D|--5--7--0--0--2--2---------------|
A|--3--5--7--7--0--0---------------|
E|---------------------------------|

repeat intro chords, verse, pre-chorus, and chorus

Then that bridge at the end of the song right after the last chorus
Slide between each chord and listen to song for timing
e|---------------------------------|
B|--5/7\5/7/8/10-------------------|
G|--4/7\4/7/7/9--------------------|
D|--2/4\2/4/5/7--------------------|
A|--0-0-0-0-0-0--------------------|
E|---------------------------------|

Then back to intro chords to finish
Tap to rate this tab
 
# A B C D E F G H I J K L M N O P Q R S T U V W X Y Z