Song name
# A B C D E F G H I J K L M N O P Q R S T U V W X Y Z

Bombay Bicycle Club - Jewel tab

capo first fret
this is my first tab it might be a bit wrong but it sounds good.
throughout the song jack often tremours his hand to bring out the notes better.
verse:
E|--------------------------------------------------------------------------------------|
B|-----1-------------1----------------1-----------1-----------1----------1--------------|
G|-------------0----------------0-----------0-----------0--------0h2-----------2-----0--|
D|-----0h2--------2-----0h2--------2--------------2--------2----------0-----------0-----|
A|--------------------------------------------------------------------------------------|
E|--3-------3----------------3-----------3-----3-----3----------------------3-----------|
repeat x4 singing on first and third times



E|------------------------------------------------------------------------------------------|
B|-----1-------------1----------------1-----------1-----------0-----3-----------3-----3-----|
G|-------------0----------------0-----------0-----------0-----------------0-----------------|
D|-----0h2--------2-----0h2--------2--------------2--------2--------2--------0--------0-----|
A|------------------------------------------------------------------------------------------|
E|--3-------3----------------3-----------3-----3-----3-----------0-----0-----------3--------|
   you          contol the        game          without       playing   right


E|--------------------------------|
B|-----------3-----1--------------|
G|-----0-----------------4-----0--|
D|--------0-----0-----------------|
A|--------------------------------|
E|--3--------3--------3-----3-----|
   oh  oh  oh  oh  ohh



E|-------------------3p0--------------0--------------------------------------------------------|
B|-----1------------------0-----3-----------3-----1-----1-----------1-----------1--------------|
G|-------------0----------------------------------------------0-----------4-----------2-----0--|
D|-----0h2--------2-------------------------------------2--------2-----------------------------|
A|---------------------------------------------------------------------------------------------|
E|--3-------3----------------3-----3-----3-----3-----3-----3-----------3-----3-----3-----3-----|
you can alternate the ending of this section with the ending of the verse



E|----------|
B|--1-------|
G|--0-------|
D|--0h2-----|
A|--3-------|
E|--3-------|
Tap to rate this tab
 
# A B C D E F G H I J K L M N O P Q R S T U V W X Y Z