Song name
# A B C D E F G H I J K L M N O P Q R S T U V W X Y Z

Bombay Bicycle Club - If I Could tab

-------------------------------------------------------------------------------
			                 IF I COULD - Bombay Bicycle Club
-------------------------------------------------------------------------------
Tabbed by: Dan Weissman

Tuning: Standard

The original tab I found for this song didn't sound quite right, so I decided to 
give it a shot myself.
This is only my third tab so let me know if you have any comments or suggestions!



Main riff:

e|---------------------------------------------------------------------------|
B|---------------------------------------------------------------------------|
G|----------4---------------0---------------2---------------0----------------|
D|------0-----0---0-----4-----4---4-----0-----0---0-----4-----4---4----------|
A|--0h2-------------0h2---------2---0h2-------------0h2---------2------------|
E|--------3-----3---------0---------------3-----3---------0------------------|


Chords:
                           /                     \
e|---5--      ---5-----    |  -----      ------- |
B|---5--      ---5-----    |  -----      ------- |
G|------ (x6) ---------    |  --0-- (x6) --2--0- |
D|------      ---------    |  --0--      --2--2- | (x3)
A|-2----      -0---0-5-    |  -----      ------- |
E|------      ---------    |  -3---      -0--0-- |
                           \                     /


That's basically the whole song.  Pretty simple but it sounds great!



************************************

| /   slide up
| \   slide down
| h   hammer-on
| p   pull-off
| ~   vibrato
| +   harmonic
| x   Mute note
| b   Bend
| pb  Pre-bend
| br  Bend release
| pbr Pre-bend release
| brb Bend release bend

************************************
Tap to rate this tab
# A B C D E F G H I J K L M N O P Q R S T U V W X Y Z