Song name
# A B C D E F G H I J K L M N O P Q R S T U V W X Y Z

Bombay Bicycle Club - Still tab

CAPO 1st Fret

I'm very lazy at writing tabs but this gives you the general gist and means you can work 
out your own cover if you please. It's what I use in my cover so you can check that out 
if you want to hear how I play it:

http://www.youtube.com/watch?v=DN-3HyhY340

Dm	  C	   G       G
All throughout the morning though

    Dm      C
I'm begging no


-----0---1----3--------------------|
-----1-- 3----5----0---1---3-------|
-----2-------------0---2---4-------|
-----------------------------------|
-----0-----------------------------|
-------------------3---------------|

Your lips they stay perfectly

-1-----0-----x------------------------|
-1-----1-----0------------------------|
-2-----0-----0------------------------|
-3-----2-----0-----0---0---0----0-----|
-0-----3-----2-----2---2---3----2-----|
-x-----0-----3-----1---3---5----3-----|

still..........................



Repeat above but end last part with:

--------------------------------------------|
--------------------------------------------|
-------------0------------0------------0----|
---------0-------------0------------0-------|
-----2--------------2------------2----------|
--3--------------3------------3-----------3-|

Still... still...


Did he fill the empty spaces

Was he everything I'm not?

There's no force behind my mouth

But in just three words

He brings you down


There's a movement

Out the door

I swear but no

Your lips they stay perfectly still

Stay... stay... stay...
Tap to rate this tab
 
# A B C D E F G H I J K L M N O P Q R S T U V W X Y Z