Song name
# A B C D E F G H I J K L M N O P Q R S T U V W X Y Z

Bombay Bicycle Club - Motel Blues tab

| h  Hammer-on
| p  Pull-off
| *  Strum Once

Capo = 4th Fret (Relative)

Intro.
e|------22-22---------22-------22--------22-22-[----22-22--]---|
B|------33-33---------33-------33--------33-33-[----33-33--]---|
G|------00-00---------00-------00--------22-22-[----22-22--]---|
D|------00-00---------00-------00----0---00-00-[----00-00--]---|   x2
A|-0h2--22-22----0h2--22--0h2--22--------------[0----------]---|
E|-------------------------------------------------------------|
                                             [Donít play 2nd time]

|----------------------00-------00------00--00---|-----22-22----2p0--------0--------0-|
|----------------------11-------11------00--00---|-----33-33---------3--------3-------|
|-2p0------------------00-------00------00--00---|-----22-22------------2--------2----|
|------4--2--0---------22---0h2-22------22--22---|-0---00-00--------------------------|
|------------------0h3-33-------33------22--22---|------------------------------------|
|------------------------------------0--00--00---|------------------------------------|


Verse

Intro. Line 1 - x1

|-----22-22--------22---------22-------22-22--2p0--------0--------0-|
|-----33-33--------33---------33-------33-33-------3--------3-------|
|-----00-00--------00---------00-------22-22----------2--------2----|
|-----00-00--------00---------00----0--00-00------------------------|
|-0h2-22-22----0h2-22-----0h2-22------------------------------------|
|-------------------------------------------------------------------|

|-------------------------------|
|-3-333---2-222---3-333---2-222-|
|-0-000---0-000---0-000---0-000-|
|-2-222---2-222---2-222---2-222-|
|-0-000---0-000---0-000---0-000-|
|-------------------------------|

Intro. Line 1 - x1

C - Em - D*


Verse 2 - Same as Verse 1

Bridge - Intro. - x1

Verse 3 - Same as Verse 1

C - Em - D*
Tap to rate this tab
# A B C D E F G H I J K L M N O P Q R S T U V W X Y Z