Song name
# A B C D E F G H I J K L M N O P Q R S T U V W X Y Z

Bombay Bicycle Club - Rinse Me Down Acoustic tab

Hi there :] this is my way of playing Rinse Me Down (acoustic) by Bombay Bicycle Club... 
from the Flaws album!

Here's a link to the song - http://www.youtube.com/watch?v=TkGpdVip4aw


Intro: (also played between verses)
e||--------2---------------|-------2---------------||
B||----------3---3---------|---------3---3---------||
G||--0h2---------2p0-0---0-|-0h2---------2p0-0---0-||
D||--0---0-----0-----------|-0---0-----0-----------|| Repeat...
A||--------------------2---|-------------------2---||
E||------------------------|-----------------------||

One variation of the intro is pulling off the high e string in the first bar... The 
change from the intro to the verse is also a tiny bit different! As you can see here! :
e||--------(2p0)-------------||
B||--------------3---3---(3)-||
G||--0h2---------------------||
D||--0---0---------0--(0)----||
A||--------------------------||
E||--------------------------||

Verse:
e||--------0-------|-----0--------|
B||----------3-----|-------3------|
G||--------------0-|-----------0--|
D||------0-----0---|---2-----2----|
A||--0h2-----------|-0------------|
E||----------------|--------------|

e|----------------|-------------|
B|--------3-----3-|-------3-----|
G|------------0---|---------0---|
D|------0---------|-----0-----0-| <- Repeat these two bars once
A|--0h2-----0-----|-------------|
E|----------------|-0h3---------|

e||--------------|-----0------------------------|
B||--------------|-----0------------------------|
G||--------------|-----0------------------------|
D||--0---2---4---|-0---4-0---0-----0-0------0-0-|
A||--------------|-----2---4---0h2------0h2-----|
E||--3-3---3---3-|---0-0------------------------|

e||------------------|--------------------||
B||------------------|--------------------||
G||----2-2-2-0-------|----0-0-0-0---0---0-||
D||----4-------4-2-0-|-0--4-------4---4---||
A||------------------|--------------------||
E||--3---------------|--0-----------------||

If you like this tab, then please rate it! I would really appreciate it :] Thanks!

Lyrics:
Chasing the night
To make it right
Oh and you had it
Caught like a rabbit

Told you to wait
But it's too late
You got your man
Rinsing him down

Turning your head
To mine instead
Gave me the eyes
Burning like light
Tap to rate this tab
# A B C D E F G H I J K L M N O P Q R S T U V W X Y Z