Song name
# A B C D E F G H I J K L M N O P Q R S T U V W X Y Z

Bombay Bicycle Club - Leaving Blues tab

This is the correct tab for Bombay Bicycle Club's Leaving Blue.
The song is played in standard (EADGBe) and the whole thing is finger picked on an 
acoustic guitar.

Capo is on the 4th fret and the song has been tabbed from the capo and the chords are 
worked out without the capo so just play the shapes as if the capo is the nut.

* Notes are raked (played really quick one after the other so they overlap)
h Hammer on
p Pick off

VERSE

 A7sus4/G                D m13  
                                ***
e---------------0------|------------------------|
B---3-------------3-1-0|---------------0--------|
G---0------0-0---------|---5------5-------5---0-|    x4
D---0-------0------0-0-|---3--3--3----------3---|
A----------------------|-5------5----5---5---5--|
E-3-----3-------3------|-----5-------------5----|


BRIDGE

  F maj                  C maj

e-----------0------------|--0----------------------------|
B---1----------------1---|-----1-------1-------1---------|
G---2---2-2------2-------|-------0---------0-------0---0-|
D---3----3---------------|----2----2h3-------2-----------|  x1
A--------------3---3---3-|--3---3--------3-------3---2---|
E-1---1-----1------------|-------------------------------|


VERSE 2

 A7sus4/G                D m13  
                                ***
e---------------0------|------------------------|
B---3-------------3-1-0|---------------0--------|
G---0------0-0---------|---5------5-------5---0-|    x6
D---0-------0------0-0-|---3--3--3----------3---|
A----------------------|-5------5----5---5---5--|
E-3-----3-------3------|-----5-------------5----|


BRIDGE


VERSE 3

 A7sus4/G                D m13  
                                ***
e---------------0------|------------------------|
B---3-------------3-1-0|---------------0--------|
G---0------0-0---------|---5------5-------5---0-|    x2
D---0-------0------0-0-|---3--3--3----------3---|
A----------------------|-5------5----5---5---5--|
E-3-----3-------3------|-----5-------------5----|


CHORUS

  Am          Gmaj       Fmaj
        **          **         ***         ***
e----------------------|-----------------------|
B---1----1------3----3-|---0-----0----0------0-|
G---2---2-------4---4--|---2----2-----2-----2--|
D----------------------|---3---3------3----3---|  x3
A-0---0----------------|-----------------------|
E-------------3---3----|-1---1------1----1-----|


then...

  Am          Gmaj       Fmaj
        **          **         ***         ***
e----------------------|-----------------------|
B---1----1------3----3-|---0-----0----0------0-|
G---2---2-------4---4--|---2----2-----2-----2--|
D----------------------|---3---3------3----3---|
A-0---0----------------|-----------------------|
E-------------3---3----|-1---1------1----1-----|

  Cmaj

e-0-----3-------------|
B---1-----1-0h1p0-----|
G-----0-----------2p0-|
D---------------------|
A-3-------------------|
E---------------------|



VERSE 4

 A7sus4/G                D m13  
                                ***
e---------------0------|------------------------|
B---3-------------3-1-0|---------------0--------|
G---0------0-0---------|---5------5-------5---0-|    x4
D---0-------0------0-0-|---3--3--3----------3---|
A----------------------|-5------5----5---5---5--|
E-3-----3-------3------|-----5-------------5----|


BRIDGE


OUTRO

 A7sus4/G                D m13  
                                ***
e---------------0------|------------------------|
B---3-------------3-1-0|---------------0--------|
G---0------0-0---------|---5------5-------5---0-|
D---0-------0------0-0-|---3--3--3----------3---|
A----------------------|-5------5----5---5---5--|
E-3-----3-------3------|-----5-------------5----|

                              .........fades out


I hope this helps you learn a great song!
Tap to rate this tab
# A B C D E F G H I J K L M N O P Q R S T U V W X Y Z