Song name
# A B C D E F G H I J K L M N O P Q R S T U V W X Y Z

Bombay Bicycle Club - Dust On The Ground tab

This is my own, more fingerstyle version of Dust on then Ground by Bombay Bicycle 
Club (Flaws version)

Standard tuning
Capo 3

Intro
e|--------|----------------------------------------------------------------|
B|-3------|-0--------------------------------------------------------------|
G|--------|---0-------0-----------0--------0---0---0-------0---------0-----|
D|-0h2p0--|-------0----------0--------0----------------2---------2-------2-|
A|--------|-----2-------0h2---------2----------------2-------0h2-------2---|
E|--------|-3-------3-----------3--------3---2---0-------0---------0-------|


e|----------|-----------------------------------------------------|
B|----------|-----------------------------------------------------|
G|---0---0--|-----------------------------------------------------|
D|----------|-----------------------------------------------------|
A|----------|-----------------------------------------------------|
E|-0---2----|-----------------------------------------------------|


Verse (much like the intro)
    e|---------------------------------------------------------------|
    B|---------------------------------------------------------------|
    G|--------------0-------0--------0-------0---0---0-------0-------|
    D|------------------0--------0-------0---------------2---------2-|
    A|----------------2-------0h2------2---------------2-------0h2---|
    E|------------3-------3--------3-------3---2---0-------0---------|
...that ancient love                      won't outgrow
                      G                                  Em
   
    e|---------------------------------------------------------------|
    B|---------------------------------------------------------------|
    G|---0-------0---0-----------------------------------------------|
    D|-------2-------------------------------------------------------|
    A|-----2---------------------------------------------------------|
    E|-0-------0---2-------------------------------------------------|


Chorus
e|--------------------------------------------------------------------|
B|-----0-------0------------------------------------------------------|
G|---------0---------0----------0-------0----------------0-------0---0|
D|-------2-------0h2------X4--------0---------0---X3---------0--------|
A|---3-------3--------------------2-------0h2--------------2----------|
E|----------------------------3-------3----------------3-------3---5--|
              
            C                    G


On the 3rd time through the chorus, play the C section then go straight back into the verse

Outro
e|---------------------------------------------------------------|
B|---------------------------------------------------------------|
G|-----------------------------0---------------------------------|
D|---------2/4--2--0-----------0---------------------------------|
A|--------------------3--2--0--2---------------------------------|
E|---3-------------------------3---------------------------------|


TAB ORDER

INTRO X2
VERSE X4
CHORUS X3
VERSE X4
CHORUS X4
OUTRO


LYRICS

it's that ancient love
that you won't outgrow
it's the fee you pay
it's the debt you owe
it's that subtle way that you throw me down
I am inches above the dust on the ground

and always quiet
always quiet now
and always silent
always silent now
no, I don't hide it
I don't hide it now

it's that ancient love
that just moves along
there's an itch so slight
even when you're gone
well I met you right
but I kept you wrong
and I must wait until I've found the ground that you're walking on
 
and always quiet
always quiet now
and always silent
always silent now
no, I don't hide it
I don't hide it now 
no, I don't hide it
I don't hide it now
Tap to rate this tab
# A B C D E F G H I J K L M N O P Q R S T U V W X Y Z