Song name
# A B C D E F G H I J K L M N O P Q R S T U V W X Y Z

Bombay Bicycle Club - How Can You Swallow So Much Sleep tab

----------------|
10-12--8------8-|
------9--4-7-9--|   x repeat
----------------|
----------------|

I wasn't quite liking how the other tabs tabbed it out so this is the easiest and best 
sounding way of doing it in my opinion. This was done by ear

there is also

5-7--3-------3--|
----5--0-3-5----|
----------------|   x repeat
----------------|
----------------|
Tap to rate this tab
# A B C D E F G H I J K L M N O P Q R S T U V W X Y Z