Song name
# A B C D E F G H I J K L M N O P Q R S T U V W X Y Z

Bombay Bicycle Club - How Can You Swallow So Much Sleep tab

How Can You Swallow So Much Sleep - Bombay Bicycle Club

Album: A Different Kind of Fix
Tabbed by: Joe C
Tuning: Standard

I tabbed this because there isn't a decent one available that I could find, hope you like it!

This is the riff that Jack plays throughout the whole song.

e|5-7-------3-------------3---5-7--------------------------------------------|
B|------5-------0-3---5------------------------------------------------------|
G|----0---0---0-----0---0---0------------------------------------------------|
D|---------------------------------------------------------------------------|
A|---------------------------------------------------------------------------|
E|---------------------------------------------------------------------------|

This is the part that Jamie plays when the bass comes in the intro. Once again, it is 
the same throughout the whole song.

e|--------------------------------------------------------------------------|
B|--------------------------------------------------------------------------|
G|--------------------------------------------------------------------------|
D|--------------------------------------------------------------------------|
A|10-------7------2------3------10-------7------5---------------------------|
E|8--(x8)--5-(x8)-0-(x8)-1-(x8)-8--(x8)--5-(x8)-3-(x16)---------------------|

Either play that or do block chords (C Am Em F C Am G)
Tap to rate this tab
 
# A B C D E F G H I J K L M N O P Q R S T U V W X Y Z