Song name
# A B C D E F G H I J K L M N O P Q R S T U V W X Y Z

Bombay Bicycle Club - Shuffle Acoustic tab

Intro.

Guitar 1

e|-------------------------|
B|-------------------------|
G|-------------------------|
D|----------7--5--4--------|  x4
A|-------5-----------5--0--|
E|---3---------------------|


Guitar 2
e|----------------------------------------------|
B|----------------------------------------------|
G|----------------------------------------------|
D|----------7--5--4--------------7--5--4--------|
A|-------5-----------5--0-----5-----------5--0--|
E|---3---------------------3--------------------|

e|----------------------------------------------------------------|
B|----------------------------------------------------------------|
G|-------7---------------------7----------------------------------|
D|---------10-9-7-----------------10-9-7--------------------------|
A|--/10-----------10-9-----10------------10-9---------------------|
E|----------------------------------------------------------------|



Verse

Guitar 1
e|----------------------------------------------|
B|----------------------------------------------|
G|----------------------------------------------|
D|----------7--5--4--------------7--5--4--------|
A|-------5-----------5--0-----5-----------5--0--|
E|---3---------------------3--------------------|

Guitar 2
e|-------------------------------------------------------------------------------|
B|-------------------------------------------------------------------------------|
G|-------------------------------------------------------------------------------|
D|---12--12--12--9------9------------9----12--12--12--9------9-------------------|
A|------------------12-----10--9--9----------------------12-----10--9--12--10----|
E|-------------------------------------------------------------------------------|



Pre-chorus

Guitar 1
e|----------------------------------------------|
B|----------------------------------------------|
G|----------------------------------------------|
D|----------7--5--4--------------7--5--4--------|
A|-------5-----------5--0-----5-----------5--0--|
E|---3---------------------3--------------------|


Guitar 2
e|---------------------------------------------------------------------------------------------|
B|---------------------------------------------------------------------------------------------|
G|---12--10--9--10--9--10-----12--10--9--10-------12--10--9--10--9--10-----12--10--9-----------|
D|-------------------------9-----------------12-------------------------9-------------12-------|
A|---------------------------------------------------------------------------------------------|
E|---------------------------------------------------------------------------------------------|


Chorus

Both Guitars (From what I can make out. On few videos the first guitar seems to play 
something a little different).



e|----------------------------------------------|
B|----------------------------------------------|
G|---------7--5--4--------------7--5--4---------|
D|------5-----------5--0-----5-----------5--0---|
A|---3--------------------7---------------------|
E|----------------------------------------------|

e|----------------------------------------------|
B|----------------------------------------------|
G|---------7--5--4--------------7--5--4---------|
D|------5-----------5--0-----5-----------5--0---|
A|---5--------------------5---------------------|
E|----------------------------------------------|

Verse

Same as before

Pre-chorus

Same as before

Chorus

Same as before but x2


Then the slow part that I don't know what to call.

guitar 1

e|------------------------------------------|
B|------------------------------------------|
G|--------5----9----7----9----5---------7---|
D|---5----5----9----7----9----5----5----7---|
A|---5----3----7----5----7----3----5----5---|
E|---3-----------------------------3--------|

guitar 2

e|--------------------------------------------------------------|
B|--------------------------------------------------------------|
G|--------------------------------------------------------------|
D|---5---9p7-7-7--9p7-7-7--9p7-7-7--9p7-7-7--9p7-7-7--9p7-7-7---|
A|---5----------------------------------------------------------|
E|---3----------------------------------------------------------|

then it moves onto this kinda palm/normal muted...thing


e|----------------------------------------------------------|
B|----------------------------------------------------------|
G|----------------------------------------------------------|
D|----8\-7--7--7---8\-7--7--7---8\-7--7--7------------------|
A|---10\-9--9--9--10\-9--9--9--10\-9--9--9------------------|
E|----------------------------------------------------------|

It's the simplest version of it that I can put down. Sometimes he doesn't return to the 
8 on the D string, but returns to the 10 on the A and slides just that down.
Or sometimes he just mutes at 7 on A and D and plays that. Basically there is no real 
consistency that I have found. If anyone figures it out I would appreciate anything 
telling me.

Another pre-chorus type thing (again wouldn't know what to call it).

guitar 1

e|-------------------------|
B|-------------------------|
G|-------------------------|
D|----------7--5--4--------|
A|-------5-----------5--0--|
E|---3---------------------|

guitar 2

e|---------------------------------------------------|
B|-------1-------------------------1-----------------|
G|--0h2-----2-----0--2--------0h2-----2-----0--2-----|
D|-------------2--------0--2-------------2--------2--|
A|---------------------------------------------------|
E|---------------------------------------------------|

e|-----------------------------15--14--12--------------------------------|
B|-------1---------------------------------15--14--12--------------------|
G|--0h2-----2-----0--2---------------------------------14--13--12--------|
D|-------------2--------0--2---------------------------------------14/---|
A|-----------------------------------------------------------------------|
E|-----------------------------------------------------------------------|



Chorus x 2

Guitar 1 plays the normal chorus

Guitar 2

e|------------------------------------------------------|
B|-------1-------------------------1--------------------|
G|--0h2-----2-----0--2--------0h2-----2-----0--2--------|
D|-------------2--------0--2-------------2--------0--2--|    x6
A|------------------------------------------------------|
E|------------------------------------------------------|

e|-----------------------------15--14--12--------------------------------|
B|-------1---------------------------------15--14--12--------------------|
G|--0h2-----2-----0--2---------------------------------14--13--12--------|
D|-------------2--------0--2---------------------------------------14/---|
A|-----------------------------------------------------------------------|
E|-----------------------------------------------------------------------|


_______________________________________

| /   slide up
| \   slide down
| h   hammer-on
| p   pull-off
| ~   vibrato
| +   harmonic
| x   Mute note
| b   Bend
| pb  Pre-bend
| br  Bend release
| pbr Pre-bend release
| brb Bend release bend
Tap to rate this tab
 
# A B C D E F G H I J K L M N O P Q R S T U V W X Y Z