Song name
# A B C D E F G H I J K L M N O P Q R S T U V W X Y Z

Bombay Bicycle Club - How Can You Swallow So Much Sleep tab

Standard Tuning

No capo


Guitar 1:  e|------------------------------------------|
(Lead)     B|----10/12----0-5---8---0-3---0-5---8------|
           G|-----------0-----0---0-----0-----0---0----|    (repeat)
           D|------------------------------------------|
           A|------------------------------------------|
           E|------------------------------------------|


              (fade in)      x8    x8    x8    x8    x8    x8    x8    x8

Guitar 2:  e|-----------|-----x-----x-----x-----x-----x-----x-----x-----x---|
(Support)  B|-----------|-----x-----x-----x-----x-----x-----x-----x-----x---|
           G|-----------|-----x-----x-----x-----x-----x-----x-----x-----x---|
           D|-----------|-----------5-----------------------5---------------|
           A|-----5-----|-----5-----3-----7-----2-----3-----3-----7-----5---|
           E|-----3-----|-----3-----------5-----0-----1-----------5-----3---|
                                                                   (repeat)
Tap to rate this tab
# A B C D E F G H I J K L M N O P Q R S T U V W X Y Z