Song name
# A B C D E F G H I J K L M N O P Q R S T U V W X Y Z

Bombay Bicycle Club - Cancel On Me tab

----------------------------------
Cancel On Me - Bombay Bicycle Club
-----------------------------------
Tabbed By: OBVIOUSLY FROST
E-mail: charlie_frost7@msn.com
------------------------------------

Some pretty dodgy tabs out there for this song so here's how I play it; sounds half decent to me.

INTRO/VERSE CHORDS

e|-------------------7--|
B|-------------------7--|
G|-----13------------8--|
D|-6---11---6---13---9--|
A|-7---9----7---11---9--|
E|-0--------0---9----7--|

BRIDGE CHORDS

e|-----7----|
B|-----9----|
G|-----11---|
D|-6---9----|
A|-7---7----|
E|-0--------|


CHORUS CHORDS

e|-7----5---7---5---|
B|-9----5---7---5---|
G|-11---6---8---6---|
D|-9----7---9---7---|
A|-7----7---9---7---|
E|------5---7---5---|


You can work out the timing yourselves and the tabs already on here for the solo 
are pretty accurate.
Tap to rate this tab
# A B C D E F G H I J K L M N O P Q R S T U V W X Y Z