Song name
# A B C D E F G H I J K L M N O P Q R S T U V W X Y Z

Bombay Bicycle Club - If I Could tab

Song originally wrote by Jack Steadman.
Lead singer of Bombay Bicycle Club when he was younger.
I noticed that I tabbed it wrong so this is my second try.
I hope this helps you guys.

Tuning:Standard
/ = Hammer On

Intro/verse
e---------------------------------------|
B------0--------------------------------|
G---------------0--------2--------0-----|
D----0--0-0---0--0-0---0--0-0---0---0-0-|
A-0/2------0/2----2-0/2------0/2-----2--|
E-----3--3-----0--------3--3-----0------|

Pre-Chorus
e-------------|
B-------------|
G------0------|
D----0--0-0---|
A-0/2----2-2--|
E-----0-----0-|

Chorus
e---------------------------------------------------------------------|
B---------------------------------------------------------------------|
G--9-9-9-9-9----7-7-4-4-4-4-4-0-2-0--4-4-4-4-4-0-2-0--4-4-4-4-4-0-2-0-|
D---------------------------------------------------------------------|
A-------------5-------------------------------------------------------|
E-7-7-7-7-7-7--5-5-3-3-3-3-3-3-0-2--3-3-3-3-3-3-0-2--3-3-3-3-3-3-0-2--|

Solo
e---------------------------------|
B-7-8-10-8-7-5-7------------------|
G---------------7-5-4-5-SLIDE-7-4-|
D---------------------------------|
A---------------------------------|
E---------------------------------|

Lyrics:

When we both change, I will explain
I will explain.
But I see you asleep, you seem at peace
So I will speak.

From what ive heard,
Your heart has burned.
Its ashes blow, so its my turn.
From what ive seen, one can dream.
That you and me, can wipe the slate clean.

Night turns all dark, leaves its mark upon my heart.
So I wait for the sun, to fill my lungs with its songs.

From what ive heard,
Your heart has burned.
Its ashes blow, so its my turn.
From what ive seen, one can dream.
That you and me, can wipe the slate clean.
And from what ive learned, it wont hurt.
Until you've said the three famous words.
If I could go, back.
If I could go back
If I could go back
If I could go back.
Tap to rate this tab
# A B C D E F G H I J K L M N O P Q R S T U V W X Y Z