Song name
# A B C D E F G H I J K L M N O P Q R S T U V W X Y Z

Bombay Bicycle Club - Keep Smiling tab

Song originally wrote by Jack Steadman.
I might be wrong on some parts so don't be afraid to
leave a comment. I also need the lyrics because I can't
exactly transcribe them. So if you also have those please
comment.I hope some of this helps.
It's all here just make sure were all of the parts go and such.

Intro/Verses:
E--------------------------------|
B--------------------------------|
G---6-----6-----6--------6----6--|
D---4-----4-----4--------4----4--|
A-------7----7-------------------|
E-5---5-------5---5---7----0-----|

Chorus:
E-----------------------|
B-----------------------|
G-10---10---11---6---1--|
D-10---10---11---6---2--| X2
A-8----8-----9---4---2--|
E-----------------------|

Solo: can be heard slightly but you'll get what I mean.

E------------------------------------------|
B-12--12----12-12-12-10-9------7-9---7-9-5-|
G------------------------------------------|
D------------------------------------------|
A------------------------------------------|
E------------------------------------------|

Guitar heard after second chorus while the lead is playing:
E----------------------------------------------------------------|
B-0-0-0-0-0-0-0-0-0-0-0-5-5-5-5-2-2-2-2-2-2-2-2-2-2-2-2-2-2-2-2--| X2
G----------------------------------------------------------------|
D----------------------------------------------------------------|
A----------------------------------------------------------------|
E----------------------------------------------------------------|

E------I     I------I    ------I    -------I    ----------|I
B-0----I     I--5---I    --2---I    --5----I    -9--------|I
G------I X12 I------I x4 ------I x8 -------I X4 -------I--| X4
D------I     I------I    ------I    -------I    ----------|I
A------I     I------I    ------I    -------I    ----------|I
E------I     I------I    ------I    -------I    ----------|I

And so on.
Tap to rate this tab
# A B C D E F G H I J K L M N O P Q R S T U V W X Y Z