Song name
# A B C D E F G H I J K L M N O P Q R S T U V W X Y Z

Bombshell - High School tab

                           "High School"
                        By: Chris Stephens

Intro
(Guitar 1)
----------------------------------------
----------------------------------------
-4--------------------------------------
-2-(8x's)-2--------6--------2-----------
----------0-(8x's)-4-(8x's)-0-(8x's)----
----------------------------------------

(Guitar 2)

-77----------------------44---------55----------------
----55-44-55----55-44-55---55-44-55----55--4h5-4h5-7--
-------------44---------------------------------------
------------------------------------------------------
------------------------------------------------------
------------------------------------------------------

Song

--------------------------------------
--------------------------------------
-4------------------------------------
-2-(8x's)-2--------6--------2---------
-*--------0-(8x's)-4-(8x's)-0-(8x's)--
----------*--------*--------*---------

Chorus

-------------------------------------
-------------------------------------
-4-----------------------------------
-2-(8x's)-2-----------------2--------
----------0-(8x's)-4--------0-(8x's)-
-------------------2-(8x's)----------
Tap to rate this tab
 
# A B C D E F G H I J K L M N O P Q R S T U V W X Y Z