Song name
# A B C D E F G H I J K L M N O P Q R S T U V W X Y Z

Bombshell - Drive-in tab

                     Drive-In
          Tabs by Chris Stephens of Bombshell
                Tim,Justin,and David 
Intro

-----0-----0-----0-----0-----0-----0-----0-----0-
-5-5---5-5---4-4---4-4---2-2---2-2---0-0---0-0---
-------------------------------------------------
-------------------------------------------------
-------------------------------------------------
------------------------------------------------- 

-----0-----0-----0----0-------0------0------0------0-
-5-5---5-5---7-7--7-7----10-10--10-10--12-12-12-12---
-----------------------------------------------------
-----------------------------------------------------
-----------------------------------------------------
-----------------------------------------------------

Chorus

---------------------------------------------------------
---------------------------------------------------------
---------------------------------------------------------
-9-9-9-9-9-9-9-9-9-9-9-9-9-9-9-9-------------------------
-7-7-7-7-7-7-7-7-6-6-6-6-6-6-6-6-11-11-11-11-11-11-11-11-
----------------------------------9--9--9--9--9--9--9--9-


-----------------------------
-----------------------------
-----------------------------
-----------------------------
-7-7-7-7-7-7-7-7-------------
-5-5-5-5-5-5-5-5-------------

SOLO!!

-----------------------------------------
-----------------------------------------
-----------------------------------------
-----------------------------------------
-6-6-----9--6--7-6---7-6-9-9-9-9-9-9-9-9-
-----7-7--7---7----7-------7-7-7-7-7-7-7-

-------------------------
-------------------------
-------------------------
-------------------------
-7-7-7-7-7-7-7-----------
-5-5-5-5-5-5-5-----------

Well that's our new song here is how it's played:
Intro 
Chorus
Intro 
Chorus
Solo
Chorus




     
Tap to rate this tab
 
# A B C D E F G H I J K L M N O P Q R S T U V W X Y Z