Song name
# A B C D E F G H I J K L M N O P Q R S T U V W X Y Z

Bombshell - Not Another Love Song tab

                      Chris Stephens

   * Palm Mute

     The intro should be played with distortion

-*-Intro-*-
------------------------------------------------
------------------------------------------------
-------55555-22222222-55555-555----------------- 
-55555-33333-00000000-33333-222-----------------  (2x's)
-33333-------********---------------------------
------------------------------------------------


-*-Chorus-*-

Play the chorus clean with flanger (sounds good)

----------------------------------------
----------------------------------------
----------------------------------------
-5--------------------------------------
-3-(8x's)-3--------3--------5-----------
----------0-(8x's)-1-(8x's)-3-(8x's)----


Solo:

Solo is pretty easy

Guitar 1- Play with distortion

--------------------------------------------------
--------------------------------------------------
--------------------------------------------------
----0--2----0--2---0--2---2-1----2--4-------------
-333-33--333-33-333-33-333----333-33--------------
--------------------------------------------------

continue to play the last fret number over again like the first one but just change the 
last number to 3-2

Gutiar 2- play clean with flanger again, also play Chorus
          for the guitar 2 part of the solo

Here's how to play:

Intro
Chorus
Intro
Chorus
Solo
Chorus

the solo is kind of long but it sounds good
Tap to rate this tab
# A B C D E F G H I J K L M N O P Q R S T U V W X Y Z