Song name
# A B C D E F G H I J K L M N O P Q R S T U V W X Y Z

Bombshell - A Girl I Know tab

Help us improve GuitareTab! Take a short survey!
                           "A Girl I Know" 
                     Chris Stephens of Bombshell

 Fast Tempo


Intro
-------------------------------
-------------------------------
-------------------------------
---5---------5---5---5---5-----   Play this clean
-----------22--22--33--33------
-33-(4x's)---------------------

Pre-Verse
------------------------------------------------
------------------------------------------------
------------------------------------------------
---45--45--45--540------------------------------ now add distortion
-----55--77---3---------------------------------
-33--**--**-------------------------------------
 **

Song
---------------------------------------
---------------------------------------
---------------------------------------
----------------------------5----------
-5--------5--------2--------3-(8x's)---
-3-(8x's)-2-(8x's)-0-(8x's)------------

Chorus
---------------------------------------
---------------------------------------
---------------------------------------
-------------------5--------7----------
-5--------2--------3-(8x's)-5-(8x's)---
-3-(8x's)-0-(8x's)---------------------


Prelude
(Guitar 1)
-----------------------------------
-----------------------------------
-----------------------------------
----------------5------------------
-5------5-------3-(/=4)------------
-3(/=4)-7-(/=2)--------------------

(Guitar 2)

-----------------------------------
-----------------------------------
-12-------4-------5----------------
--x-------x-------x----------------
-10-(/=4)-2-(/=2)-3-(/=4)----------
-----------------------------------

Here's how to play this song:

Intro
Song
Chorus
Intro 
Song
Chorus
Prelude
Chorus

And also, on this song the symbol / means to hold the note
Related for A Girl I Know tab