Song name
# A B C D E F G H I J K L M N O P Q R S T U V W X Y Z

Bomfunk Mcs - Rock Rocking Tha Spot tab

Song: Rock Rocking Tha Spot
Artist: Bomfunk mc's
Album: In Stereo

Intro    
         part a         part b 
                              h                      h
       e|--------------|---2-/-14-----------------2-/-14--------------------|
       b|--fade in-----|----------------------------------------------------|
 dist  g|----//--------|.--------------------------------------------------.|
guitar d|----2---------|.---------5-5--7-7--9-9------------5-5--7-7--2-2---.|
       a|----2---------|----------5-5--7-7--9-9------------5-5--7-7--2-2----|
       e|----0---------|----------3-3--5-5--7-7------------3-3--5-5--0-0----|



verse

        e|---7-----------------|--7----------------|
clean   b|---8-----------------|--7----------------|
guitar  g|.--9--play-it-in-----|--8---------------.|
        d|.--9--a-funk-style---|--9---------------.|
        a|---7--with wah wah---|--9----------------|
        e|---------------------|--7----------------|
         |                     |                   |
        e|---------------------|-------------------|
        b|---------------------|-------------------|
 dist   g|.--------------------|------------------.|
guitar  d|.------7-7--9-9------|----------2-------.|
        a|-------7-7--9-9------|----------2--------|
        e|-------5-5--7-7------|----------0--------|

Then:

Chorus: Intro part b + sometimes clean guitar of the verse
Bridge: no guitar
Verse
Chorus


Great song
beranger80@hotmail.com
Tap to rate this tab
 
# A B C D E F G H I J K L M N O P Q R S T U V W X Y Z