Song name
# A B C D E F G H I J K L M N O P Q R S T U V W X Y Z

Bon Iver - Blindsided tab

----------------------------------------------------------------------------
			     Blindsided - Bon Iver
----------------------------------------------------------------------------
Tabbed by: Breno
Email: brennansmart@hotmail.com

Tuning: Standard
Capo: 3

pretty simple song, remember the capo!

please, please vote!!!

Intro + verse:
e|------------------------------------------|
B|------------------------------------------|  Repeat 3 times
G|-----------------------------0---0--------|   
D|------------------------------------------|  
A|------------------------------------------|  
E|---3---3---3---3---3---3---3---3----------|


e|------------------------------------------|
B|------------------------------------------|  
G|------------------------------------------|   
D|------------------------------------------|  
A|------------------------------------------|  
E|---3---3---3---3---3---3---3---3----------|


e|-------------------------------------------------|
B|---------0---------------------------------------|  
G|---2---------------------------------------------|   
D|-------------------------------------------------|  
A|-------------------------------------------------|  
E|---3---3---3---3---3---3---3---3---3---3---3---3-|


e|------------------------------------------|
B|-----0------------------------------------|  
G|---------2---0-2-----0--------------------|   
D|------------------------------------------|  
A|------------------------------------------|  
E|---3---3---3---3---3---3---3---3----------|

e|------------------------------------------|
B|-----0------------------------------------|  
G|---------2---0-2-----0--------------------|   
D|------------------------------------------|  
A|------------------------------------------|  
E|---3---3---3---0---0---0---0---0----------|

e|------------------------------------------|
B|-----0------------------------------------|  
G|---------2---0-2-----0--------------------|   
D|------------------------------------------|  
A|------------------------------------------|  
E|---0---0---0---3---3---3---3---3---3---3--|

Chorus:
Let each chord ring out...
e|----2------x--------------------------|
B|----3------3--------------------------|
G|----0------0------0------0------------|
D|----0------4------0------2------------|
A|----3------5------2------3------------|
E|----x------x--------------------------|

After Chorus:
e|------------------------------------------|
B|------------------------------------------|  
G|---------0--------------------------------|   
D|---0--------------------------------------|  
A|------------------------------------------|  
E|---3---3---3---3---3---3---3---3----------|

e|------------------------------------------|
B|------------------------------------------|  
G|---------2--------------------------------|   
D|---0--------------------------------------|  
A|------------------------------------------|  
E|---2---2---2---2---2---2---2---2----------|


e|------------------------------------------|
B|------------------------------------------|  
G|---------0--------------------------------|   
D|---0--------------------------------------|  
A|---3---3---3---3---3---3---3---3----------|  
E|------------------------------------------|

Play verse and chorus through again, according to song structure

"Would you really rush out for me now?"
e|----------------------------------------|
B|---1-----------------3------------------|
G|---0-----------------0------------------|
D|---2---slide up to---4------------------|
A|---3-----------------5------------------|
E|----------------------------------------|

the end    :)
Tap to rate this tab
 
# A B C D E F G H I J K L M N O P Q R S T U V W X Y Z