Song name
# A B C D E F G H I J K L M N O P Q R S T U V W X Y Z

Bon Iver - For Emma tab

Bon Iver - For Emma
Tabbed by Dow


  C/G                                          Em
e|x--x----x--x--x----x--x--x----x--x--x----x--|0--0----x--0--0----x--0--0----x--0--0----x--|
B|x--1----x--1--1----x--1--1----x--1--1----x--|0--0----x--0--0----x--0--0----x--0--0----x--|
G|x--0----x--0--0----x--0--0----x--0--0----x--|0--0----x--0--0----x--0--0----x--0--0----x--|
D|x--2----x--2--2----x--2--2----x--2--2----x--|3--3----x--3--3----x--3--3----x--3--3----x--|
A|x--3----x--3--3----x--3--3----x--3--3----x--|3--3----x--3--3----x--3--3----x--3--3----x--|
E|x--3----x--3--3----x--3--3----x--3--3----x--|0--0----x--0--0----x--0--0----x--0--0----x--|


  F                                            C/G
e|1--1----x--1--1----x--1--1----x--1--1----x--|x--x----x--x--x----x--x--x----x--x--x----x--|
B|1--1----x--1--1----x--1--1----x--1--1----x--|1--1----x--1--1----x--1--1----x--1--1----x--|
G|2--2----x--2--2----x--2--2----x--2--2----x--|0--0----x--0--0----x--0--0----x--0--0----x--|
D|3--3----x--3--3----x--3--3----x--3--3----x--|2--2----x--2--2----x--2--2----x--2--2----x--|
A|3--3----x--3--3----x--3--3----x--3--3----x--|3--3----x--3--3----x--3--3----x--3--3----x--|
E|1--1----x--1--1----x--1--1----x--1--1----x--|3--3----x--3--3----x--3--3----x--3--3----x--|


  C/G                                          Em
e|x--x----x--x--x----x--x--x----x--x--x----x--|0--0----x--0--0----x--0--0----x--0--0----x--|
B|1--1----x--1--1----x--1--1----x--1--1----x--|0--0----x--0--0----x--0--0----x--0--0----x--|
G|0--0----x--0--0----x--0--0----x--0--0----x--|0--0----x--0--0----x--0--0----x--0--0----x--|
D|2--2----x--2--2----x--2--2----x--2--2----x--|3--3----x--3--3----x--3--3----x--3--3----x--|
A|3--3----x--3--3----x--3--3----x--3--3----x--|3--3----x--3--3----x--3--3----x--3--3----x--|
E|3--3----x--3--3----x--3--3----x--3--3----x--|0--0----x--0--0----x--0--0----x--0--0----x--|


  F                                            C/G
e|1--1----x--1--1----x--1--1----x--1--1----x--|x--x----x--x--x----x--|
B|1--1----x--1--1----x--1--1----x--1--1----x--|1--1----x--1--1----x--|
G|2--2----x--2--2----x--2--2----x--2--2----x--|0--0----x--0--0----x--|
D|3--3----x--3--3----x--3--3----x--3--3----x--|2--2----x--2--2----x--|
A|3--3----x--3--3----x--3--3----x--3--3----x--|3--3----x--3--3----x--|
E|1--1----x--1--1----x--1--1----x--1--1----x--|3--3----x--3--3----x--|


  Em                                           C/G
e|0--0----x--0--0----x--0--0----x--0--0----x--|x--x----x--x--x----x--x--x----x--x--x----x--|
B|0--0----x--0--0----x--0--0----x--0--0----x--|1--1----x--1--1----x--1--1----x--1--1----x--|
G|0--0----x--0--0----x--0--0----x--0--0----x--|0--0----x--0--0----x--0--0----x--0--0----x--|
D|3--3----x--3--3----x--3--3----x--3--3----x--|2--2----x--2--2----x--2--2----x--2--2----x--|
A|3--3----x--3--3----x--3--3----x--3--3----x--|3--3----x--3--3----x--3--3----x--3--3----x--|
E|0--0----x--0--0----x--0--0----x--0--0----x--|3--3----x--3--3----x--3--3----x--3--3----x--|
                                   so          aprepos

  Em                                           C/G
e|0--0----x--0--0----x--0--0----x--0--0----x--|x--x----x--x--x----x--x--x----x--x--x----x--|
B|0--0----x--0--0----x--0--0----x--0--0----x--|1--1----x--1--1----x--1--1----x--1--1----x--|
G|0--0----x--0--0----x--0--0----x--0--0----x--|0--0----x--0--0----x--0--0----x--0--0----x--|
D|3--3----x--3--3----x--3--3----x--3--3----x--|2--2----x--2--2----x--2--2----x--2--2----x--|
A|3--3----x--3--3----x--3--3----x--3--3----x--|3--3----x--3--3----x--3--3----x--3--3----x--|
E|0--0----x--0--0----x--0--0----x--0--0----x--|3--3----x--3--3----x--3--3----x--3--3----x--|
                    saw    death   on a  sunny      snow                   for  every       

  F                                            C/G
e|1--1----x--1--1----x--1--1----x--1--1----x--|x--x----x--x--x----x--x--x----x--x--x----x--|
B|1--1----x--1--1----x--1--1----x--1--1----x--|1--1----x--1--1----x--1--1----x--1--1----x--|
G|2--2----x--2--2----x--2--2----x--2--2----x--|0--0----x--0--0----x--0--0----x--0--0----x--|
D|3--3----x--3--3----x--3--3----x--3--3----x--|2--2----x--2--2----x--2--2----x--2--2----x--|
A|3--3----x--3--3----x--3--3----x--3--3----x--|3--3----x--3--3----x--3--3----x--3--3----x--|
E|1--1----x--1--1----x--1--1----x--1--1----x--|3--3----x--3--3----x--3--3----x--3--3----x--|
  life                             forgoe  the perable                          seek   the 

  F                                            C/G                              Em
e|1--1----x--1--1----x--1--1----x--1--1----x--|x--x----x--x--x----x--x--x----x--0--0----x--|
B|1--1----x--1--1----x--1--1----x--1--1----x--|1--1----x--1--1----x--1--1----x--0--0----x--|
G|2--2----x--2--2----x--2--2----x--2--2----x--|0--0----x--0--0----x--0--0----x--0--0----x--|
D|3--3----x--3--3----x--3--3----x--3--3----x--|2--2----x--2--2----x--2--2----x--3--3----x--|
A|3--3----x--3--3----x--3--3----x--3--3----x--|3--3----x--3--3----x--3--3----x--3--3----x--|
E|1--1----x--1--1----x--1--1----x--1--1----x--|3--3----x--3--3----x--3--3----x--0--0----x--|
  light                            my knees are cold                         running    running
                                                                                   home
  Em                    F
e|0--0----x--0--0----x--1--1----x--1--1----x--|1--1----x--1--1----x--|
B|0--0----x--0--0----x--1--1----x--1--1----x--|1--1----x--1--1----x--|
G|0--0----x--0--0----x--2--2----x--2--2----x--|2--2----x--2--2----x--|
D|3--3----x--3--3----x--3--3----x--3--3----x--|3--3----x--3--3----x--|
A|3--3----x--3--3----x--3--3----x--3--3----x--|3--3----x--3--3----x--|
E|0--0----x--0--0----x--1--1----x--1--1----x--|1--1----x--1--1----x--|
     home       home running        home
          running                   
  C/G
e|x--x----x--x--x----x--x--x----x--x--x----x--|
B|x--1----x--1--1----x--1--1----x--1--1----x--|
G|x--0----x--0--0----x--0--0----x--0--0----x--|
D|x--2----x--2--2----x--2--2----x--2--2----x--|
A|x--3----x--3--3----x--3--3----x--3--3----x--|
E|x--3----x--3--3----x--3--3----x--3--3----x--|

  Em                                           C/G
e|0--0----x--0--0----x--0--0----x--0--0----x--|x--x----x--x--x----x--x--x----x--x--x----x--|
B|0--0----x--0--0----x--0--0----x--0--0----x--|1--1----x--1--1----x--1--1----x--1--1----x--|
G|0--0----x--0--0----x--0--0----x--0--0----x--|0--0----x--0--0----x--0--0----x--0--0----x--|
D|3--3----x--3--3----x--3--3----x--3--3----x--|2--2----x--2--2----x--2--2----x--2--2----x--|
A|3--3----x--3--3----x--3--3----x--3--3----x--|3--3----x--3--3----x--3--3----x--3--3----x--|
E|0--0----x--0--0----x--0--0----x--0--0----x--|3--3----x--3--3----x--3--3----x--3--3----x--|
                                   go find     another lover
  Em                                           C/G
e|0--0----x--0--0----x--0--0----x--0--0----x--|x--x----x--x--x----x--x--x----x--x--x----x--|
B|0--0----x--0--0----x--0--0----x--0--0----x--|1--1----x--1--1----x--1--1----x--1--1----x--|
G|0--0----x--0--0----x--0--0----x--0--0----x--|0--0----x--0--0----x--0--0----x--0--0----x--|
D|3--3----x--3--3----x--3--3----x--3--3----x--|2--2----x--2--2----x--2--2----x--2--2----x--|
A|3--3----x--3--3----x--3--3----x--3--3----x--|3--3----x--3--3----x--3--3----x--3--3----x--|
E|0--0----x--0--0----x--0--0----x--0--0----x--|3--3----x--3--3----x--3--3----x--3--3----x--|
           to  bring on         to string  a-  long                          with all   your

  F                                            C/G
e|1--1----x--1--1----x--1--1----x--1--1----x--|x--x----x--x--x----x--x--x----x--x--x----x--|
B|1--1----x--1--1----x--1--1----x--1--1----x--|1--1----x--1--1----x--1--1----x--1--1----x--|
G|2--2----x--2--2----x--2--2----x--2--2----x--|0--0----x--0--0----x--0--0----x--0--0----x--|
D|3--3----x--3--3----x--3--3----x--3--3----x--|2--2----x--2--2----x--2--2----x--2--2----x--|
A|3--3----x--3--3----x--3--3----x--3--3----x--|3--3----x--3--3----x--3--3----x--3--3----x--|
E|1--1----x--1--1----x--1--1----x--1--1----x--|3--3----x--3--3----x--3--3----x--3--3----x--|
  lies                           you're  very loveable                        i toured  the 
                                     still
  F                                            C/G                              Em
e|1--1----x--1--1----x--1--1----x--1--1----x--|x--x----x--x--x----x--x--x----x--0--0----x--|
B|1--1----x--1--1----x--1--1----x--1--1----x--|1--1----x--1--1----x--1--1----x--0--0----x--|
G|2--2----x--2--2----x--2--2----x--2--2----x--|0--0----x--0--0----x--0--0----x--0--0----x--|
D|3--3----x--3--3----x--3--3----x--3--3----x--|2--2----x--2--2----x--2--2----x--3--3----x--|
A|3--3----x--3--3----x--3--3----x--3--3----x--|3--3----x--3--3----x--3--3----x--3--3----x--|
E|1--1----x--1--1----x--1--1----x--1--1----x--|3--3----x--3--3----x--3--3----x--0--0----x--|
   light                           so many     foreign roads


  Em                                           Em
e|0--0----x--0--0----x--0--0----x--0--0----x--|0--0----x--0--0----x--|
B|0--0----x--0--0----x--0--0----x--0--0----x--|0--0----x--0--0----x--|
G|0--0----x--0--0----x--0--0----x--0--0----x--|0--0----x--0--0----x--|
D|3--3----x--3--3----x--3--3----x--0--0----x--|3--3----x--0--3----x--|
A|3--3----x--3--3----x--3--3----x--3--3----x--|3--3----x--3--3----x--|
E|0--0----x--0--0----x--0--0----x--3--3----x--|0--0----x--0--0----x--|
         for   emma                                    forever    

  F
e|1--1----x--1--1----x--1--1----x--1--1----x--|
B|1--1----x--1--1----x--1--1----x--1--1----x--|
G|2--2----x--2--2----x--2--2----x--2--2----x--|
D|3--3----x--3--3----x--3--3----x--3--3----x--|
A|3--3----x--3--3----x--3--3----x--3--3----x--|
E|1--1----x--1--1----x--1--1----x--1--1----x--|
  ago


  C/G                                          Em
e|x--x----x--x--x----x--x--x----x--x--x----x--|0--0----x--0--0----x--0--0----x--0--0----x--|
B|1--1----x--1--1----x--1--1----x--1--1----x--|0--0----x--0--0----x--0--0----x--0--0----x--|
G|0--0----x--0--0----x--0--0----x--0--0----x--|0--0----x--0--0----x--0--0----x--0--0----x--|
D|2--2----x--2--2----x--2--2----x--2--2----x--|3--3----x--3--3----x--3--3----x--3--3----x--|
A|3--3----x--3--3----x--3--3----x--3--3----x--|3--3----x--3--3----x--3--3----x--3--3----x--|
E|3--3----x--3--3----x--3--3----x--3--3----x--|0--0----x--0--0----x--0--0----x--0--0----x--|


  F                                            C/G
e|1--1----x--1--1----x--1--1----x--1--1----x--|x--x----x--x--x----x--x--x----x--x--x----x--|
B|1--1----x--1--1----x--1--1----x--1--1----x--|1--1----x--1--1----x--1--1----x--1--1----x--|
G|2--2----x--2--2----x--2--2----x--2--2----x--|0--0----x--0--0----x--0--0----x--0--0----x--|
D|3--3----x--3--3----x--3--3----x--3--3----x--|2--2----x--2--2----x--2--2----x--2--2----x--|
A|3--3----x--3--3----x--3--3----x--3--3----x--|3--3----x--3--3----x--3--3----x--3--3----x--|
E|1--1----x--1--1----x--1--1----x--1--1----x--|3--3----x--3--3----x--3--3----x--3--3----x--|


  C/G                                          Em
e|x--x----x--x--x----x--x--x----x--x--x----x--|0--0----x--0--0----x--0--0----x--0--0----x--|
B|1--1----x--1--1----x--1--1----x--1--1----x--|0--0----x--0--0----x--0--0----x--0--0----x--|
G|0--0----x--0--0----x--0--0----x--0--0----x--|0--0----x--0--0----x--0--0----x--0--0----x--|
D|2--2----x--2--2----x--2--2----x--2--2----x--|3--3----x--3--3----x--3--3----x--3--3----x--|
A|3--3----x--3--3----x--3--3----x--3--3----x--|3--3----x--3--3----x--3--3----x--3--3----x--|
E|3--3----x--3--3----x--3--3----x--3--3----x--|0--0----x--0--0----x--0--0----x--0--0----x--|


  F                                            C/G
e|1--1----x--1--1----x--1--1----x--1--1----x--|x--x----x--x--x----x--|
B|1--1----x--1--1----x--1--1----x--1--1----x--|1--1----x--1--1----x--|
G|2--2----x--2--2----x--2--2----x--2--2----x--|0--0----x--0--0----x--|
D|3--3----x--3--3----x--3--3----x--3--3----x--|2--2----x--2--2----x--|
A|3--3----x--3--3----x--3--3----x--3--3----x--|3--3----x--3--3----x--|
E|1--1----x--1--1----x--1--1----x--1--1----x--|3--3----x--3--3----x--|


  Em                                           C/G
e|0--0----x--0--0----x--0--0----x--0--0----x--|x--x----x--x--x----x--x--x----x--x--x----x--|
B|0--0----x--0--0----x--0--0----x--0--0----x--|1--1----x--1--1----x--1--1----x--1--1----x--|
G|0--0----x--0--0----x--0--0----x--0--0----x--|0--0----x--0--0----x--0--0----x--0--0----x--|
D|3--3----x--3--3----x--3--3----x--3--3----x--|2--2----x--2--2----x--2--2----x--2--2----x--|
A|3--3----x--3--3----x--3--3----x--3--3----x--|3--3----x--3--3----x--3--3----x--3--3----x--|
E|0--0----x--0--0----x--0--0----x--0--0----x--|3--3----x--3--3----x--3--3----x--3--3----x--|


  F                                            C/G
e|1--1----x--1--1----x--1--1----x--1--1----x--|x--x----x--x--x----x--x--x----x--x--x----x--|
B|1--1----x--1--1----x--1--1----x--1--1----x--|1--1----x--1--1----x--1--1----x--1--1----x--|
G|2--2----x--2--2----x--2--2----x--2--2----x--|0--0----x--0--0----x--0--0----x--0--0----x--|
D|3--3----x--3--3----x--3--3----x--3--3----x--|2--2----x--2--2----x--2--2----x--2--2----x--|
A|3--3----x--3--3----x--3--3----x--3--3----x--|3--3----x--3--3----x--3--3----x--3--3----x--|
E|1--1----x--1--1----x--1--1----x--1--1----x--|3--3----x--3--3----x--3--3----x--3--3----x--|
                                   hm hmmmm    hmmhmmmm

 F                                            C/G                              Em
e|1--1----x--1--1----x--1--1----x--1--1----x--|x--x----x--x--x----x--x--x----x--0--0----x--|
B|1--1----x--1--1----x--1--1----x--1--1----x--|1--1----x--1--1----x--1--1----x--0--0----x--|
G|2--2----x--2--2----x--2--2----x--2--2----x--|0--0----x--0--0----x--0--0----x--0--0----x--|
D|3--3----x--3--3----x--3--3----x--3--3----x--|2--2----x--2--2----x--2--2----x--3--3----x--|
A|3--3----x--3--3----x--3--3----x--3--3----x--|3--3----x--3--3----x--3--3----x--3--3----x--|
E|1--1----x--1--1----x--1--1----x--1--1----x--|3--3----x--3--3----x--3--3----x--0--0----x--|
                                  hm  hmmmm    hm hmmmm-                        hmmmm

  Em                    F
e|0--0----x--0--0----x--1--1----x--1--1----x--|1--1----x--1--1----x--|
B|0--0----x--0--0----x--1--1----x--1--1----x--|1--1----x--1--1----x--|
G|0--0----x--0--0----x--2--2----x--2--2----x--|2--2----x--2--2----x--|
D|3--3----x--3--3----x--3--3----x--3--3----x--|3--3----x--3--3----x--|
A|3--3----x--3--3----x--3--3----x--3--3----x--|3--3----x--3--3----x--|
E|0--0----x--0--0----x--1--1----x--1--1----x--|1--1----x--1--1----x--|

  C/G
e|x--x----x--x--x----x--x--x----x--x--x----x--|
B|x--1----x--1--1----x--1--1----x--1--1----x--|
G|x--0----x--0--0----x--0--0----x--0--0----x--|
D|x--2----x--2--2----x--2--2----x--2--2----x--|
A|x--3----x--3--3----x--3--3----x--3--3----x--|
E|x--3----x--3--3----x--3--3----x--3--3----x--|


  C/G                                          Em
e|x--x----x--x--x----x--x--x----x--x--x----x--|0--0----x--0--0----x--0--0----x--0--0----x--|
B|1--1----x--1--1----x--1--1----x--1--1----x--|0--0----x--0--0----x--0--0----x--0--0----x--|
G|0--0----x--0--0----x--0--0----x--0--0----x--|0--0----x--0--0----x--0--0----x--0--0----x--|
D|2--2----x--2--2----x--2--2----x--2--2----x--|3--3----x--3--3----x--3--3----x--3--3----x--|
A|3--3----x--3--3----x--3--3----x--3--3----x--|3--3----x--3--3----x--3--3----x--3--3----x--|
E|3--3----x--3--3----x--3--3----x--3--3----x--|0--0----x--0--0----x--0--0----x--0--0----x--|

  F                                            C/G
e|1--1----x--1--1----x--1--1----x--1--1----x--|x--x----x--x--x----x--x--x----x--x--x----x--|
B|1--1----x--1--1----x--1--1----x--1--1----x--|1--1----x--1--1----x--1--1----x--1--1----x--|
G|2--2----x--2--2----x--2--2----x--2--2----x--|0--0----x--0--0----x--0--0----x--0--0----x--|
D|3--3----x--3--3----x--3--3----x--3--3----x--|2--2----x--2--2----x--2--2----x--2--2----x--|
A|3--3----x--3--3----x--3--3----x--3--3----x--|3--3----x--3--3----x--3--3----x--3--3----x--|
E|1--1----x--1--1----x--1--1----x--1--1----x--|3--3----x--3--3----x--3--3----x--3--3----x--|
Tap to rate this tab
 
# A B C D E F G H I J K L M N O P Q R S T U V W X Y Z