Song name
# A B C D E F G H I J K L M N O P Q R S T U V W X Y Z

Bon Iver - Skinny Love tab

Bon Iver - Skinny Love
For Emma, Forever Ago

Tuning: 
C  Down 2 steps
G  Down 2 steps.
E   Up 1 step.
G  Leave.
C  Up 1 step.
C  Down 2 steps.

(Strum all strings on the riffs)


Intro:

c|-----0---------------0---------------0-----------2-4-2-0-2-4-2-0-|
C|-----0---------------0---------------0-----------2-4-2-0-2-4-2-0-|
G|-----2---------------5---------------0---------------------------|
E|-----0---------------0---------------0---------------------------|
G|-2---2-----------5---5-----------0-------------------------------|
C|---------------------------------0-------------------------------|


c|-----0---------------0---------------0-----------7-9-7-4-2-4-2-0-|
C|-----0---------------0---------------0-----------7-9-7-4-2-4-2-0-|
G|-----2---------------5---------------0---------------------------|
E|-----0---------------0---------------0---------------------------|
G|-2---2-----------5---5-----------0-------------------------------|
C|-----------------------------------------------------------------|


c|-----0---------------0---------------0---------------5---5---4---|
C|-----0---------------0---------------0---------------5---5---4---|
G|-----2---------------5---------------0---------------------------|
E|-----0---------------0---------------0---------------------------|
G|-2---2-----------5---5-----------0-------------------------------|
C|-----------------------------------------------------------------|

c|-----0---------------0---------------0-------------------0---0---|
C|-----0---------------0---------------0-------------------0---0---|
G|-----7---------------7---------------2------------------/5---5---|
E|-----7---------------7---------------0-------------------0---0---|
G|-7---7-----------7---7-----------2---2------------------/5---5---|
C|-----------------------------------------------------------------|



c|-----0---------------0---------------0---------------0-----------|
C|-----0---------------0---------------0---------------0-----------|
G|-----0---------------0---------------0---------------0-----------|
E|-----0---------------0---------------0---------------0-----------|
G|-0---0-----------0---0-----------0---0-----------0---0-----------|
C|-0---------------0---------------0---------------0---------------|

Verse 1: 

c|-----0---------------0---------------0-----------|
C|-----0---------------0---------------0-----------|
G|-----2---------------5---------------0-----------|
E|-----0---------------0---------------0-----------|
G|-2---2-----------5---5-----------0---------------|
C|---------------------------------0---------------|


c|-----0---------------0---------------0-----------|
C|-----0---------------0---------------0-----------|
G|-----2---------------5---------------0-----------|
E|-----0---------------0---------------0-----------|
G|-2---2-----------5---5-----------0---------------|
C|-------------------------------------------------|


c|-----0---------------0---------------0------------|
C|-----0---------------0---------------0------------|
G|-----2---------------5---------------0------------|
E|-----0---------------0---------------0------------|
G|-2---2-----------5---5-----------0----------------|
C|--------------------------------------------------|

c|-----0---------------0---------------0-------0--------------0---0---|
C|-----0---------------0---------------0-------0--------------0---0---|
G|-----7---------------7---------------2-------2--------------5---5---|
E|-----7---------------7---------------0-------0--------------5---5---|
G|-7---7-----------7---7-----------2---2----2--2--------------5---5---|
C|--------------------------------------------------------------------|

c|-------------------------------------------------------------|
C|-------------------------------------------------------------|
G|-------------------------------------------------------------|
E|----3-0------------------------------------------------------|
G|--------7-5-2---0--------------------------------------------|
C|-------------------------------------------------------------|


Verse 2: 

c|-----0---------------0---------------0--------0h2-----|
C|-----0---------------0---------------0--------0-------|
G|-----2---------------5---------------0--------0-------|
E|-----0---------------0---------------0--------0-------|
G|-2---2-----------5---5-----------0------------0-------|
C|---------------------------------0------------0-------|


c|-----0---------------0---------------0-----------|
C|-----0---------------0---------------0-----------|
G|-----2---------------5---------------0-----------|
E|-----0---------------0---------------0-----------|
G|-2---2-----------5---5-----------0---------------|
C|-------------------------------------------------|


c|-----0---------------0---------------0------------|
C|-----0---------------0---------------0------------|
G|-----2---------------5---------------0------------|
E|-----0---------------0---------------0------------|
G|-2---2-----------5---5-----------0----------------|
C|--------------------------------------------------|

c|-----0---------------0---------------0-------0----|
C|-----0---------------0---------------0-------0----|
G|-----7---------------7---------------2-------2----|
E|-----7---------------7---------------0-------0----|
G|-7---7-----------7---7-----------2---2----2--2----|
C|--------------------------------------------------|

c|-----0---------------0---------------0--------|
C|-----0---------------0---------------0--------|
G|-----5---------------5---------------5--------|
E|-----5---------------5---------------5--------|
G|-5---5-----------5---5-----------5---5--------|
C|----------------------------------------------|

Chorus:

c|-----0---------------0---------------0---------------0-----------|
C|-----0---------------0---------------0---------------0-----------|
G|-----7---------------7---------------4---------------2-----------|
E|-----8---------------8---------------3---------------1-----------|
G|-9---9-----------9---9-----------4---4-----------2---2-----------|
C|-----------------------------------------------------------------|

c|-----0---------------0---------------0---------------0-----------|
C|-----0---------------0---------------0---------------0-----------|
G|-----7---------------7---------------4---------------2-----------|
E|-----8---------------8---------------3---------------1-----------|
G|-9---9-----------9---9-----------4---4-----------2---2-----------|
C|-----------------------------------------------------------------|

c|-----0---------------0---------------0---------------0-----------|
C|-----0---------------0---------------0---------------0-----------|
G|-----7---------------7---------------4---------------2-----------|
E|-----8---------------8---------------3---------------1-----------|
G|-9---9-----------9---9-----------4---4-----------2---2-----------|
C|-----------------------------------------------------------------|

c|-----0---------------0---------------0---------------0-----------|
C|-----0---------------0---------------0---------------0-----------|
G|-----7---------------7---------------4---------------2-----------|
E|-----8---------------8---------------3---------------1-----------|
G|-9---9-----------9---9-----------4---4-----------2---2-----------|
C|-----------------------------------------------------------------|

c|----0---------------0---------------0----------------------------|
C|----0---------------0---------------0----------------------------|
G|----2---------------2---------------2----------------------------|
E|----1---------------1---------------1----------------------------|
G|-2--2------------2--2------------2--2----------------------------|
C|-----------------------------------------------------------------|

Verse 3:

c|-----0---------------0---------------0------0h2---|
C|-----0---------------0---------------0------0h2---|
G|-----2---------------5---------------0------0-----|
E|-----0---------------0---------------0------0-----|
G|-2---2-----------5---5-----------0----------0-----|
C|---------------------------------0----------0-----|


c|-----0---------------0---------------0-----------|
C|-----0---------------0---------------0-----------|
G|-----2---------------5---------------0-----------|
E|-----0---------------0---------------0-----------|
G|-2---2-----------5---5-----------0---------------|
C|-------------------------------------------------|


c|-----0---------------0---------------0------------|
C|-----0---------------0---------------0------------|
G|-----2---------------5---------------0------------|
E|-----0---------------0---------------0------------|
G|-2---2-----------5---5-----------0----------------|
C|--------------------------------------------------|

c|-----0---------------0---------------0-------0----|
C|-----0---------------0---------------0-------0----|
G|-----7---------------7---------------2-------2----|
E|-----7---------------7---------------0-------0----|
G|-7---7-----------7---7-----------2---2----2--2----|
C|--------------------------------------------------|

c|-----0---------------0---------------0--------|
C|-----0---------------0---------------0--------|
G|-----5---------------5---------------5--------|
E|-----5---------------5---------------5--------|
G|-5---5-----------5---5-----------5---5--------|
C|----------------------------------------------|

Chorus 2:

c|-----0---------------0---------------0---------------0-----------|
C|-----0---------------0---------------0---------------0-----------|
G|-----7---------------7---------------4---------------2-----------|
E|-----8---------------8---------------3---------------1-----------|
G|-9---9-----------9---9-----------4---4-----------2---2-----------|
C|-----------------------------------------------------------------|

c|-----0---------------0---------------0---------------0-----------|
C|-----0---------------0---------------0---------------0-----------|
G|-----7---------------7---------------4---------------2-----------|
E|-----8---------------8---------------3---------------1-----------|
G|-9---9-----------9---9-----------4---4-----------2---2-----------|
C|-----------------------------------------------------------------|

c|-----0---------------0---------------0---------------0-----------|
C|-----0---------------0---------------0---------------0-----------|
G|-----7---------------7---------------4---------------2-----------|
E|-----8---------------8---------------3---------------1-----------|
G|-9---9-----------9---9-----------4---4-----------2---2-----------|
C|-----------------------------------------------------------------|

c|-----0---------------0---------------0---------------0-----------|
C|-----0---------------0---------------0---------------0-----------|
G|-----7---------------7---------------4---------------2-----------|
E|-----8---------------8---------------3---------------1-----------|
G|-9---9-----------9---9-----------4---4-----------2---2-----------|
C|-----------------------------------------------------------------|

c|----0---------------0---------------0----------------------------|
C|----0---------------0---------------0----------------------------|
G|----2---------------2---------------2----------------------------|
E|----1---------------1---------------1----------------------------|   
G|-2--2------------2--2------------2--2----------------------------|
C|-----------------------------------------------------------------|

c|-----0---------------0---------------0---------------0-----------|
C|-----0---------------0---------------0---------------0-----------|
G|-----7---------------7---------------4---------------2-----------|
E|-----8---------------8---------------3---------------1-----------|
G|-9---9-----------9---9-----------4---4-----------2---2-----------|
C|-----------------------------------------------------------------|

c|-----0---------------0---------------0---------------0-----------|
C|-----0---------------0---------------0---------------0-----------|
G|-----7---------------7---------------4---------------2-----------|
E|-----8---------------8---------------3---------------1-----------|
G|-9---9-----------9---9-----------4---4-----------2---2-----------|
C|-----------------------------------------------------------------|

c|----0---------------0---------------0----------------------------|
C|----0---------------0---------------0----------------------------|
G|----2---------------2---------------2----------------------------|
E|----1---------------1---------------1----------------------------|   
G|-2--2------------2--2------------2--2----------------------------|
C|-----------------------------------------------------------------|

Outro:

c|-----0---------------0---------------0-----------2-4-2-0-2-4-2-0-|
C|-----0---------------0---------------0-----------2-4-2-0-2-4-2-0-|
G|-----2---------------5---------------0---------------------------|
E|-----0---------------0---------------0---------------------------|
G|-2---2-----------5---5-----------0-------------------------------|
C|---------------------------------0-------------------------------|


c|-----0---------------0---------------0-----------7-9-7-4-2-4-2-0-|
C|-----0---------------0---------------0-----------7-9-7-4-2-4-2-0-|
G|-----2---------------5---------------0---------------------------|
E|-----0---------------0---------------0---------------------------|
G|-2---2-----------5---5-----------0-------------------------------|
C|-----------------------------------------------------------------|


c|-----0---------------0---------------0---------------5---5---4---|
C|-----0---------------0---------------0---------------5---5---4---|
G|-----2---------------5---------------0---------------------------|
E|-----0---------------0---------------0---------------------------|
G|-2---2-----------5---5-----------0-------------------------------|
C|-----------------------------------------------------------------|

c|-----0---------------0---------------0-------------------0---0---|
C|-----0---------------0---------------0-------------------0---0---|
G|-----7---------------7---------------2------------------/5---5---|
E|-----7---------------7---------------0-------------------0---0---|
G|-7---7-----------7---7-----------2---2------------------/5---5---|
C|-----------------------------------------------------------------|


Tap to rate this tab
# A B C D E F G H I J K L M N O P Q R S T U V W X Y Z