Song name
# A B C D E F G H I J K L M N O P Q R S T U V W X Y Z

Bon Iver - Woods tab

"I'm up in the woooods"

e-----------------------------------------|
B-----------------------------------------|
G----------7---10---~---------------------|
D--8-8-10---------------------------------|
A-----------------------------------------|
E-----------------------------------------|

"I'm down on my mind"

e-----------------------------------------|
B-----------------------------------------|
G-----------8--p6-------------------------|
D------6-8--------------------------------|
A--9-9------------------------------------|
E-----------------------------------------|

"I'm building a still"

e-----------------------------------------|
B-----------------------------------------|
G-----------------------------------------|
D------6-8--6-----------------------------|
A--9-9------------------------------------|
E-----------------------------------------|


"to slooooow down time"

e-----------------------------------------|
B-----------------------------------------|
G-----------------------------------------|
D----6h8-p-6------------------------------|
A--9---------9-p-6------------------------|
E-----------------------------------------|
Tap to rate this tab
 
# A B C D E F G H I J K L M N O P Q R S T U V W X Y Z