Song name
# A B C D E F G H I J K L M N O P Q R S T U V W X Y Z

Bon Iver - Hazeltons tab

Bon Iver (Justin Vernon) - Hazeltons

Pretty much exact, listen to the track for timing/lyrics... But it's a Bon Iver song, so 
I recommend singing what you think he's saying, not the actual lyrics. It usually 
sounds more like the song that way...

Capo on 1

E|--------------0-----------------------0-----------------------0-----------|
B|--------2-----------2-----------2-----------2-----------2-----------2-----|
G|-----2-----2-----2-----2-----2-----2-----2-----2-----2-----2-----2-----2--|
D|--------------------------------------------------------------------------|
A|--0-----------------------2-----------------------------------------------|
E|--------------------------------------------------2-----------------------|



E|--------------0-----------------------0-----------------------0-----------|
B|--------2-----------2-----------2-----------2-----------2-----------2-----|
G|-----2-----2-----2-----2-----2-----2-----2-----2-----2-----2-----2-----2--|
D|--------------------------------------------------------------------------|
A|--------------------------------------------------------------------------|
E|--2-----------------------0-----------------------0-----------------------|



E|--------------0-----------|
B|--------2-----------2-----|
G|-----2-----2-----2-----2--|
D|--------------------------|
A|--------------------------|
E|--2-----------------------|

It continues like this... you can figure it out

Good Luck!
Tap to rate this tab
 
# A B C D E F G H I J K L M N O P Q R S T U V W X Y Z