Bon Iver - Perth tab

-------------------------------------------------------------------------------
			     Perth - Bon Iver
-------------------------------------------------------------------------------
Tabbed by: Elliot
Email: eawparkes@hotmail.com

This is the first song (called Perth) off the new Bon Iver album titled "Bon Iver"

Tuning: EADGBE (Standard)

First of all i must point out that there are 2 possible ways of playing this intro (i 
personally prefer the first way).
I'm not entirely sure which way Justin plays it so i will tab it both ways, just see 
which one you prefer and have fun with it.

p.s: My email address is above, email me if you spot any errors or questions and i will 
correct them.

First Way:

e|----------------------------------------1h3h4p3p1-------|
B|-----------------1h3h4p3------3-4-------------------4---|
G|------3-5-----------------------------------------------| (Repeat x 3)
D|--------------------------------------------------------|
A|------------1--1-----------3----------3-----------------|
E|--4--4---4--------------------------------------------4-|

e|-------------------------------------------------------|
B|-----------------1h3h4p3------3-4----4-3---------------|
G|------3-5----------------------------0-0---------------| (Repeat x 2)
D|-------------------------------------------------------|
A|------------1--1-----------3---------3-3---------------|
E|--4--4---4---------------------------------------------|

Second Way:

e|--------------------------------------------------------|
B|----------------------------------------6h8h9p8p6--/4---|
G|-------3-5--------5h7h8p7------7-8----------------------| (Repeat x 3)
D|--------------------------------------------------------|
A|--------------------------------------------------------|
E|--4--4----4/6--6------------/8-------8----------------4-|

e|--------------------------------------------------------|
B|--------------------------------------------------------|
G|-------3-5--------5h7h8p7------7-8-----8--7-------------| (Repeat x 2)
D|--------------------------------------------------------|
A|--------------------------------------------------------|
E|--4--4----4/6--6------------/8---------8--8-------------|


************************************

| /   slide up
| \   slide down
| h   hammer-on
| p   pull-off
| ~   vibrato
| +   harmonic
| x   Mute note
| b   Bend
| pb  Pre-bend
| br  Bend release
| pbr Pre-bend release
| brb Bend release bend
Tap to rate this tab
 
# A B C D E F G H I J K L M N O P Q R S T U V W X Y Z