Song name
# A B C D E F G H I J K L M N O P Q R S T U V W X Y Z

Bon Iver - Woods tab

Hey, tryed looking for this tab every where and not much about, so i thought id give it 
ago and this is what i come up with. Hope you like :).


Im up in the woods.      Im...

--4--------------------------------------|
--4--5-----------------------------------|
--4-----6--------------------------------|
--4-----6--------------------------------|
--4--------------------------------------|
--4--------------------------------------|


   Down...........on my.......   mind.
--5--------------4--------------2-------------------|
--5--------------4--5-----------2--3----------------|
--5--6-----------4-----6--------2-------------------|
--5-----7--------4-----6--------2-----4-------------|
--5-----7--------4--------------2-------------------|
--5--------------4--------------2-------------------|

Im building a still.

-----------------------------------------|
-----------------------------------------|
--1--------------------------------------|
-----2-----------------------------------|
-----2-----------------------------------|
-----------------------------------------|

To slow down time.

--2---------------------------------------|
--2---------------------------------------|
--2---------------------------------------|
--2--4------------------------------------|
--2--4------------------------------------|
--2---------------------------------------|

Enjoy!
Tap to rate this tab
 
# A B C D E F G H I J K L M N O P Q R S T U V W X Y Z