Song name
# A B C D E F G H I J K L M N O P Q R S T U V W X Y Z

Bon Iver - Towers tab

Standard Tuning

Capo 4th Fret
Verse

----------0----0-0-------0-0------0-0---------0---------0-------0-0--|
----------1----1-1-------1-1------1-1---------1----1-------1----1-1--|
----0h2---------------0-----------0-0---------0-------0----0----0-0--|
-------------------------------2---------2h3-------------------------|
---------------------------------------------------------------------|
---------------------------------------------------------------------|


Chorus

  G            Am		  Fmaj7
--1------------0------------0---------|
--0------------1------------1---------|
--0------------2------------2---------|
--0------------2------------3---------|  x3
--2------------0------------3---------|
--3-------------------------1---------|

   Am    Fmaj7       C
----0------0---------0----------------|
----1------1---------1----------------|
----2------2---------0----------------|
----2------3---------2----------------|  Back to Verse
----0------3---------3----------------|
-----------1--------------------------|


Bridge
NO CAPO
                  G              Bm          A
------------------1--------------2-----------0---------------|
------------------0--------------3-----------2---------------|
------------------0--------------4-----------2---------------|
------------------0--------------4-----------2---------------|
------------------2--------------2-----------0---------------|
---0---2----3-----3------------------------------------------|

The Last time he goes from the G to some sort
of a strange Bb or Amaj7-ish Chord that I couldn't quite figure out
I think its something similar to this which is like a Bb/Amaj7.
but it isn't quite right.

-----0-----------------|
-----2-----------------|
-----1-----------------|
-----2-----------------|
-----1-----------------|
-----------------------|

If you figure it out let me know.


Thats pretty much it. Goes back to the Verse and Chorus
but down a whole step to (Capo 2nd Fret) You can also play
this song easily without a capo. You just need to modify how
you play the Chords in the Chorus. Which would make the Bridge
and the Key change a little easier to do.

Hope you find this useful.
Tap to rate this tab
 
# A B C D E F G H I J K L M N O P Q R S T U V W X Y Z