Bon Iver - Holocene tab

-------------------------------------------------------------------------------
			     HOLOCENE - Bon Iver
-------------------------------------------------------------------------------
Tabbed by: dodman

Capo: 6th

Tuning: C, A, D, G, B, d

INTRO AND VERSE

let ring.
d|---0----0-------------------| x2 d|---0---0----| 
B|--------------0-------------|    B|------------|
G|-----0-----2--------2-------|    G|-----0------|
D|-5--------------------------|    D|-2----------|
A|----------------------------|    A|------------|
C|----------------------------|    C|------------|

let ring.
d|---0----0-------------------| x4
B|--------------0-------------|
G|-----0-----2--------2-------|
D|-0--------------------------|
A|----------------------------|
C|----------------------------|

let ring.
d|---0----0-------------------| d|---0----0-------------------| x4
B|--------------0-------------| B|--------------0-------------|
G|-----0-----2--------2-------| G|-----0-----2--------2-------|
D|-2--------------------------| D|----------------------------|
A|----------------------------| A|-3--------------------------|
C|----------------------------| C|----------------------------|

PRE-CHORUS

Pick similarly to verse
d|0
B|1
G|0
D|2
A|3
C|0

CHORUS
Notes in brackets are the bass-line to give it a fuller sound, play at your own discretion.

let ring.
d|---0----0-------------------| x2  d|---0----0-------------------| x4
B|--------------0-------------|     B|--------------0-------------|
G|-----0-----2--------2-------|     G|-----0-----2--------2-------|
D|-2--------------------------|     D|-0--------------------------|
A|----------------------------|     A|----------------------------|
C|(4)-------------------------|     C|(2)-------------------------|

let ring.
d|---0----0-------------------| x4
B|--------------0-------------|
G|-----0-----2--------2-------|
D|----------------------------|
A|-3--------------------------|
C|(0)-------------------------|

let ring.
d|---0----0-------------------|  d|---0----0-------------------| x4
B|--------------0-------------|  B|--------------0-------------|
G|-----0-----2--------2-------|  G|-----0-----2--------2-------|
D|-2--------------------------|  D|-0--------------------------|
A|----------------------------|  A|----------------------------|
C|(4)-------------------------|  C|(2)-------------------------|

let ring.
d|---0----0-------------------|  d|---0----0-------------------|
B|--------------0-------------|  B|--------------0-------------|
G|-----0-----2--------2-------|  G|-----0-----2--------2-------|
D|----------------------------|  D|-2--------------------------|
A|-3--------------------------|  A|----------------------------|
C|(0)-------------------------|  D|(4)-------------------------|

let ring.
d|---0----0-------------------|  d|---0----0-------------------| x4
B|--------------0-------------|  B|--------------0-------------|
G|-----0-----2--------2-------|  G|-----0-----2--------2-------|
D|-5--------------------------|  D|-0--------------------------|
A|----------------------------|  A|----------------------------|
C|(7)-------------------------|  C|(2)-------------------------|

let ring.
d|---0---0----|  d|---0---0----|  d|---0---0----| 
B|------------|  B|------------|  B|------------| 
G|-----0------|  G|-----0------|  G|-----0------|
D|-2----------|  D|------------|  D|-0----------|
A|------------|  A|-3----------|  A|------------|
C|(4)---------|  C|(0)---------|  C|(2)---------| 

let ring.
d|---0----0-------------------|    d|0
B|--------------0-------------|    B|0
G|-----0-----2--------2-------|    G|0
D|-5--------------------------|    D|5
A|----------------------------|    A|-
C|----------------------------|    C|-


Tap to rate this tab
 
# A B C D E F G H I J K L M N O P Q R S T U V W X Y Z