Song name
# A B C D E F G H I J K L M N O P Q R S T U V W X Y Z

Bon Iver - Holocene tab

            Bon Iver - Holocene

Capo on 1.. I think this is right :)


e|---3---3---0-0----3---3---0------3---0---3---3---0------3---3---0---------|
B|-1---1---0------1---1---0---3------3-------1---3---3------1---3---3-------|
G|-------------------------------2-------0--------------0-------------------|
D|--------------------------------------------------------------------------|
A|-3--------------3--------------0------------------------------------------|
E|---------------------------------------3--------------3-------------------|

e|---3---3---0------3---3---0------3---3---0------3---3---0------3---3---0--|
B|-----1---3---3------1---3---3------1---3---3------1---3---3------1---3---3|
G|-0--------------0--------------2--------------0--------------0------------|
D|--------------------------------------------------------------------------|
A|-------------------------------0------------------------------------------|
E|-3--------------3-----------------------------1--------------1------------|

e|----3---3---0------3---3---0--------------|
B|------1---3---3------1---3---3------------|
G|--0--------------0------------------------|
D|------------------------------------------|
A|------------------------------------------|
E|--1--------------1------------------------|

This repeats for the whole song ;) Have a nice day.
Tap to rate this tab
# A B C D E F G H I J K L M N O P Q R S T U V W X Y Z