Song name
# A B C D E F G H I J K L M N O P Q R S T U V W X Y Z

Bon Iver - Minnesota Wi tab

Tuning:
E-B-D#-Gb-B-e

Capo 4th fret

e | ----------------------------------- |
B | --0------------0------------------- |
Gb| -----0--2-----------0----2--------- |
D#| ----------------------------------- |
B | -----------4------------------4---- |
E | ----------------------------------- |

The First part is played with delay but you kan play without.

e | ------------------- |
B | --0---------------- |
Gb| -----0--2---------- |
D#| ------------------- | repeat x3
B | -----------(4)----- | 
E | ------------------- |

e | ------------------------------------------------------------------ |
B | ----------------0------------------------------------------------- |
Gb| --2--2--0--2-------0---------------------------------------------- |
D#| ----------------------3p2p0--------------------------------------- | 
B | -------------------------------------------------0----4--2--0----- |
E | -------------------------------4--4--4--2--4--4----------------4-- |

This was my first tab so don't be so harsh. But I hope that this has helped you, peace out!
Tap to rate this tab
# A B C D E F G H I J K L M N O P Q R S T U V W X Y Z