Song name
# A B C D E F G H I J K L M N O P Q R S T U V W X Y Z

Bon Iver - Holocene chords

Highlighted       Show chord diagrams
After taking a look at the tabs available for this song
 i decided it was time someone actually figured it out.
This version is simple and sounds great. I hope you enjoy it.

No capo

G
-----------------------|
----------0~-------0~--|
----0---------0--------|
-------12-------12-----|
-10~-------------------|
-----------------------|

Em      (expanded)
----------------------|
-------0~---------(0)-|
---0--------(0)-------|
-----9---------(9)----|
-7--------------------|
----------------------|

D
-------------------|
-------0~-------0~-|
---0--------0------|
-----7--------7----|
-5-----------------|
-------------------|

C
------------------|
-------0~------0~-|
---0-------0------|
-----5-------5----|
-2----------------|
------------------|
Intro:
G x2  Em  D x4  Em(exp) x1  C x4

Play the verse using the intro structure

VERSE
G                                Em        D
Someway, baby, it's part of me, apart from me.
        Em             C
you're laying waste to Halloween
   G                                         Em             D
you fucked it friend, it's on it's head, it struck the street
       Em             C
you're in Milwaukee, off your feet

CHORUS
         C                                     Em   D
and at once I knew I was not magnificent
C                                Em  D
strayed above the highway aisle
 C      Em        G           D
jagged vacance, thick with ice
                Em       C      D     G
I could see for miles, miles, miles

VERSE
3rd and Lake it burnt away, the hallway
was where we learned to celebrate
automatic bought the years you’d talk for me
that night you played me ʻLip Paradeʼ
not the needle, nor the thread, the lost decree
saying nothing, that’s enough for me

CHORUS
...and at once I knew I was not magnificent
hulled far from the highway aisle
jagged, vacance, thick with ice
I could see for miles, miles, miles

VERSE
Christmas night, it clutched the light, the hallow bright
above my brother, I and tangled spines
we smoked the screen to make it what it was to be
now to know it in my memory:

CHORUS
...and at once I knew I was not magnificent
high above the highway aisle
jagged vacance, thick with ice
I could see for miles, miles, miles
Tap to rate this tab
# A B C D E F G H I J K L M N O P Q R S T U V W X Y Z