Song name
# A B C D E F G H I J K L M N O P Q R S T U V W X Y Z

Bon Iver - Woods tab

I decided to tab out the first 3 parts for guitar cause I was messing around with my 
classical. I might arrange for more, but above 3 voices, it gets a bit dicey.

Anyways:

Capo on 4 (tab is in relation to the capo)

e|-------------|---------------|-------------|-------------|
B|---------2---|---------------|-------------|-------------|
G|-------------|---------4---2-|-------------|-------------|
D|-0-0-2-4-----|-0-0-2-4-------|-0-0-2-4-2---|-0-4--2--0---|
A|-------------|---------------|-------------|-----------2-|
E|-------------|---------------|-------------|-------------|


e|---------0---|---------------|-------------|-------------|
B|---------2---|---------3--(3)|-------------|-------------|
G|-----0-2-----|-----0-2-4---2-|-----0-2-0---|---2--0------|
D|-4-4-2-4-----|-4-4-2-4-------|-4-4-2-4-2---|-4-4--2--4-0-|
A|-5-5---------|-5-5-----------|-5-5---------|-5-------5-2-|
E|-------------|---------------|-------------|-------------|

e|---------0---|---------------|-------------|-------------|
B|-3-3-3-3-3---|-3-3-3-3-3--(3)|-3-3-3-3-2---|-3-5--3--2-0-|
G|-----0-2-6---|-----0-2-4---6-|-----0-2-0---|---2--0------|
D|-4-4-2-4-----|-4-4-2-4-----7-|-4-4-2-4-2---|-4-4--2--4-0-|
A|-5-5---------|-5-5-----------|-5-5---------|-5-------5-2-|
E|-------------|---------------|-------------|-------------|


Like I said, its a bit dicey. I use the middle finger for most of the "D's" on the B 
string. Anyways, have fun! Sorry if the last "measure" is wrong. I think it sounds OK with 
the recording.
Tap to rate this tab
# A B C D E F G H I J K L M N O P Q R S T U V W X Y Z