Song name
# A B C D E F G H I J K L M N O P Q R S T U V W X Y Z

Bon Iver - Skinny Love tab

-------------------------------------------------------------------------------
                             Skinny Love - Bon Iver
-------------------------------------------------------------------------------
Tabbed by: Freddie Macauley
E-mail: fmacauley2@gmail.com

Tuning: Standard
No capo

This is so that you don't have to tune your guitar to C or open C, as that's a 
pain, and also so that no capo is needed, if you have a capo handy I'd recommend 
the tab with a capo on 5 with the e string 'uncapoed', but that too can be a bit awkward.

This is a very simple version, and therefore won't sound perfect.

Chords used for the intro/verse:
   Am   C    C/G  D6
e|-0----0----0----2-|
B|-1----1----1----0-|
G|-2----0----0----2-|
D|-2----2----2----0-|
A|-0----3----3----2-|
E|-----------3------|

Intro:

e|-0--0--0-------------------0--0--0--3-5-3-------------0--0--0--|
B|-1--1--1--3-5-3---3-5-3----1--1--1--------5--3-5-3----1--1--1--|
G|-2--0--0--------5-------5--2--0--0-----------------5--2--0--0--|
D|-2--2--2-------------------2--2--2--------------------2--2--2--|
A|-0--3--3-------------------0--3--3--------------------0--3--3--|
E|-------3-------------------------3--------------------------3--|

Verse:

Am             C                  C/G
Come on skinny love just last the year
Am             C                  C/G
Pour a little salt we were never here
        Am          C       C/G
My, my, my, my, my, my, my, my
               D6                        Am      C
Staring at the sink of blood and crushed veneer



Chords used in the chorus:
 
   C  Cmaj7  Fmaj7
e|-0----0----0----|
B|-1----0----1----|
G|-0----0----2----|
D|-2----2----3----|
A|-3----3---------|
E|----------------|

  C
I told you to be patient
  Cmaj7          Fmaj7
I told you to be fine
  C
I told you to be balanced
  Cmaj7          Fmaj7
I told you to be kind
       C
In the morning I'll be with you
            Cmaj7           Fmaj7
But it will be a different "kind"
        C
I'll be holding all the tickets
              Cmaj7          Fmaj7
And you'll be owning all the fines
Tap to rate this tab
# A B C D E F G H I J K L M N O P Q R S T U V W X Y Z