Song name
# A B C D E F G H I J K L M N O P Q R S T U V W X Y Z

Bon Iver - Towers tab

-------------------------------------------------------------------------------
                         Towers - Bon Iver
-------------------------------------------------------------------------------

Tuning:EADGBE

Intro/Verse
e|---------------------------------------------------------------------------|
B|--------------------------------------------------------9------------------|
G|----------9----9--9--9-----9-9--------9-9------9---9-9----9---9-9-9--------|
D|---9h11--11---11-11-11--9--9-9--------9-9---7--7---7-7----7---7-7-7--------|
A|-----------------------------------11--------------------------------------|
E|---------------------------------------------------------------------------|

For the love, I d fallen on
In the swampy August dawn
What a mischief you would bring young darling! 


e|------------------------------------------------|
B|--7---------------9-------------5---------------|
G|--8---------------9-------------6---------------|
D|--9--------------11-------------7---------------|
A|--9--------------11-------------7---------------|
E|--7---------------9-------------5---------------| x3

When the onus is not all your own
When you're up for it before you've grown

e|---------------------------|
B|---5------------0----------|
G|---6------------1----------|
D|---7------------2----------|
A|---7------------2----------|
E|---5------------0----------|


e|---------------------------------------------------------------------------|
B|--------------------------------------------------------9------------------|
G|----------9----9--9--9-----9-9--------9-9------9---9-9----9---9-9-9--------|
D|---9h11--11---11-11-11--9--9-9--------9-9---7--7---7-7----7---7-7-7--------|
A|-----------------------------------11--------------------------------------|
E|---------------------------------------------------------------------------|

From the faun forever gone
In the towers of your honeycomb
I'd a tore your hair out just to climb back darling

e|------------------------------------------------|
B|--7---------------9-------------5---------------|
G|--8---------------9-------------6---------------|
D|--9--------------11-------------7---------------|
A|--9--------------11-------------7---------------|
E|--7---------------9-------------5---------------| x4

When you're filling out your only form
Can you tell that its just ceremon'
Now you've added up to what you're from

e|---------------|
B|-------3-------|
G|-------4-------|
D|-------5-------|
A|-------5-------|
E|--0-2--3-------|

Build your tether rain-out from your fragments... 

e|----------------------------------------------------------------|
B|--7----------------------------5----------------------3---------|
G|--7----------------------------6----------------------4---------|
D|--9----------------------------7----------------------5---------|
A|--9----------------------------7----------------------5---------|
E|--7----------------------------5----------------------3---------| x2

e|---------------------------|
B|---2-----------7-----------|
G|---3-----------7-----------|
D|---4-----------7-----------|
A|---4-----------5-----------|
E|---2-----------------------|

Break the sailor's table on your sacrum... 
Fuck the fiercest fables, I'm with Hagen

e|---------------------------------------------------------------------------|
B|-------------------------------------------------------7-------------------|
G|--------7---7-7-7---------7-7------7--7--------7--7-7-----7-7-7------------|
D|--7h9---9---9-9-9----7----7-7------7--7----5---5--5-5-----5-5-5------------|
A|--------------------------------9------------------------------------------|
E|---------------------------------------------------------------------------|

For the love, comes the burning young
From the liver, sweating through your tongue
Well, youre standing on my sternum don't you climb down darling

e|------------------------------------------------------------|
B|-----5----------------------7------------------3------------|
G|-----6----------------------7------------------4------------|
D|-----7----------------------9------------------5------------|
A|-----7----------------------9------------------5------------|
E|-----5----------------------7------------------3------------|

Oh the sermons are the first to rest
Smoke on Sundays when youre drunk and dressed
Out the hollows where the swallow nests

************************************

| /   slide up
| \   slide down
| h   hammer-on
| p   pull-off
| ~   vibrato
| +   harmonic
| x   Mute note
| b   Bend
| pb  Pre-bend
| br  Bend release
| pbr Pre-bend release
| brb Bend release bend

************************************
Tap to rate this tab
# A B C D E F G H I J K L M N O P Q R S T U V W X Y Z