Song name
# A B C D E F G H I J K L M N O P Q R S T U V W X Y Z

Bon Iver - Holocene tab

-------------------------------------------------------------------------------
                             HOLOCENE – Bon Iver
-------------------------------------------------------------------------------


Tuning: Standard, Capo 1st fret

Verse
e|---------------0------------------0-----------------------0----------------|
B|-----8----8-------------8----8------------8---8---8---8--------------------|
G|-------------9-----9------------9-----9-----5-------5---7-----7------------|
D|--10---10------------10---10------------7-------5--------------------------|
A|---------------------------------------------------------------------------|
E|---------------------------------------------------------------------------|

e|------------0---------------0---------------0---------------0--------------|
B|----8---8-----------8---8-----------8---8-----------8---8------------------|
G|------5---7-----7-----5---7-----7-----5---7-----7-----5---7-----7----------|
D|--5---------------5---------------5---------------7------------------------|
A|---------------------------------------------------------------------------|
E|---------------------------------------------------------------------------|

e|------------0---------------0---------------0---------------0--------------|
B|----8---8-----------8---8-----------8---8-----------8---8------------------|
G|------5---7-----7-----5---7-----7-----5---7-----7-----5---7-----7----------|
D|---------------------------------------------------------------------------|
A|--8---------------8---------------8---------------8------------------------|
E|---------------------------------------------------------------------------|


Chorus – ‘And at once I knew…’
e|---------------0-------------------0-------------------0-------------------|
B|-----8----8--------------8----8--------------8----8------------------------|
G|------------10-----10-----------10-----10-----------10-----10--------------|
D|--10---10-------------10---10-------------10---10--------------------------|
A|---------------------------------------------------------------------------|
E|---------------------------------------------------------------------------|

e|---------------0----------------0---------------0---------------0----------|
B|-----8----8-------------8---8-----------8---8-----------8---8--------------|
G|------------10-----10-----5---7-----7-----5---7-----7-----5---7-----7------|
D|--10---10-------------7---------------7---------------5--------------------|
A|---------------------------------------------------------------------------|
E|---------------------------------------------------------------------------|

e|------------0---------------0---------------0---------------0--------------|
B|----8---8-----------8---8-----------8---8-----------8---8------------------|
G|------5---7-----7-----5---7-----7-----5---7-----7-----5---7-----7----------|
D|--5---------------5---------------5----------------------------------------|
A|--------------------------------------------------8------------------------|
E|---------------------------------------------------------------------------|

e|------------0--------------0---------------0---------------0---------------|
B|----8---8----------8---8-----------8---8-----------8---8-------------------|
G|------5---7----7-----5---7-----7-----5---7-----7-----5---7-----7-----------|
D|-------------------------------------------------7-------------------------|
A|--8--------------8---------------8-----------------------------------------|
E|---------------------------------------------------------------------------|

e|------------0---------------0---------------0---------------0--------------|
B|----8---8-----------8---8-----------8---8-----------8---8------------------|
G|------5---7-----7-----5---7-----7-----5---7-----7-----5---7-----7----------|
D|--5---------------5---------------5---------------5------------------------|
A|---------------------------------------------------------------------------|
E|---------------------------------------------------------------------------|

e|------------0---------------0-----------------0---------------0------------|
B|----8---8-----------8---8------------8----8-----------8---8----------------|
G|------5---7-----7-----5---7-----7-----------9-----9-----5---7-----7--------|
D|------------------7---------------10---10-----------5----------------------|
A|--8------------------------------------------------------------------------|
E|---------------------------------------------------------------------------|

e|------------0---------------0---------------0------------------------------|
B|----8---8-----------8---8-----------8---8-----------8---8------------------|
G|------5---7-----7-----5---7-----7-----5---7-----7-----5--------------------|
D|--5---------------5---------------5---------------7------------------------|
A|---------------------------------------------------------------------------|
E|---------------------------------------------------------------------------|

e|------------------------------0--------------------------------------------|
B|----8---8---8---8----8----8---------8--------------------------------------|
G|------5-------5-------------9-----9-9--------------------------------------|
D|----------5-------10---10-----------10-------------------------------------|
A|--8------------------------------------------------------------------------|
E|---------------------------------------------------------------------------|
Tap to rate this tab
# A B C D E F G H I J K L M N O P Q R S T U V W X Y Z